MUZBANK



A Most Complete Bank Of Music Information

МУЗЫКАЛЬНО-ИНФОРМАЦИОННЫЙ БАНК

Поиск по сайту







    ККрематорий • Клубника со льдом (аккорды и текст - chords & lyrics)


    352

    Print

    Видео «Клубника со льдом (Крематорий)»

    Видео клипы к песне подбираются автоматически сайтом youtube. Возможны некоторые несоответствия клипов песне.

    ↑ Спрятать рекламу ↑



    Download



     
    
    
    (На октаву ниже)
    
         A          D         E            A                   D
    e-------------------------------------------------------|
    b|-------0-2----0-----------------------------------0-2----0--------|
    g|---2--------------2-----2---4-2--1---2-1------2--------------2----|
    d---------4--------------------2---------------------4--|
    a-------------------------------------------------------|
    E-------------------------------------------------------|
    
         E          A
    e-------------------------------------------------------|
    h---2---------------------------------------------------|
    g|---2--4-4--2-----4--2---------------------------------------------|
    d-------------------------------------------------------|
    a-------------------------------------------------------|
    E-------------------------------------------------------|
        A          Hm        E           A
    Когда уходит любовь, когда умирают львы
    И засыхают все аленькие цветки
    Блудные космонавты возвращаются в отчий дом -
    Она приходит сюда и ест клубнику со льдом
    
    Она закрывает глаза, она шевелит губами
    Она разрешает смотреть, и даже трогать руками
    Каждый готов согреть ее своим теплом
    Но она не любит мужчин, она любит клубнику со льдом
    
    Кто-то делит с ней хлеб, а кто-то в поте лица
    Обливает грязной водой, тело ее из льда
    Слезы текут с потолка, тает фруктовый дом...
    Приятного аппетита всем, кто любит клубнику со льдом!
     

    Тональность:

    Нет текста!



    Назад
    Рекомендуем посмотреть другие песни исполнителя «Крематорий»:

    • Комментарии Facebook ()
    • Комментарии ВКонтакте



    Добавить в Избранное Браузера
    Сохранить здесь Очистить


    x

    0


    +
    -

    +
    -

    -

    Авторизация





    Зарегистрироваться

    M

    Дата и время

    • 12:39:48
       

    Социальные ссылки


    Наши приложения

    • Muzbank App Play Market
    • Muzbank Amazon App