MUZBANK



A Most Complete Bank Of Music Information

МУЗЫКАЛЬНО-ИНФОРМАЦИОННЫЙ БАНК

Поиск по сайту







    ККрематорий • Маленькая девочка (аккорды и текст - chords & lyrics)


    728

    Print

    Видео «Маленькая девочка (Крематорий)»

    Видео клипы к песне подбираются автоматически сайтом youtube. Возможны некоторые несоответствия клипов песне.

    ↑ Спрятать рекламу ↑



    Download



     [Intro]
       
    e|--------------|--------------|--------------|--------------| 
    H|------0-----0-|-1h3p1-0-----1|-0h1p0-------1|-0h1p0--------| 
    G|----2-----2---|-----------2--|-------2---2--|-----------2--| 
    D|-2------2-----|-0-------3----|-3-------3----|--------------| 
    A|-0------------|--------------|--------------|-0---------0--| 
    E|--------------|--------------|--------------|--------------| 
             
    e|--------------|--------------|--------------|--------------| 
    H|------0-----0-|-1h3p1-0-----1|-0h1p0-------1|-0h1p0--------| 
    G|----2-----2---|-----------2--|-------2---2--|-----------2--| 
    D|-2------2-----|-0-------3----|-3-------3----|--------------| 
    A|-0------------|--------------|--------------|-0---------0--| 
    E|--------------|--------------|--------------|--------------| 
    
    e|-----------0---0-|-1-0---0-----|-------------|-------------------| 
    H|-----0h1h3---3---|-----3---3-1-|-3-1-0-1-0---|-------------------| 
    G|-2-2-------------|-------------|-----------0-|-2-----------------| 
    D|-----------2-----|-0-----------|-------2-----|---------(0)h2-----| 
    A|-0---------------|-------3-----|-2-----------|-0-0h2h3-------3-2-| 
    E|-----------------|-------------|-------------|-------------------| 
    
    e|-----------0---0-|-1-0---0-----|-------------| 
    H|-----0h1h3---3---|-----3---3-1-|-3-1-0-1-0---|  
    G|-2-2-------------|-------------|-----------0-| 
    D|-----------2-----|-0-----------|-------2-----| 
    A|-0---------------|-------3-----|-2-----------| 
    E|-----------------|-------------|-------------|...
    
    
    Am           Dm     F                Am
      Маленькая девочка   со взглядом волчицы,
                Dm    F           Am
      Я тоже когда-то   был самоубийцей.
                Dm  F                  Am
      Я тоже лежал    в окровавленной ванной,
    F            Am  G           Am 
      И молча вкушал   дым марихуаны.
    
    Am                Dm   F           Am
      Ты видишь, как мирно   пасутся коровы,
                 Dm    F              Am
      И как лучезарны    хрустальные горы.
                    Dm  F                Am 
      Мы вырвем столбы,    мы отменим границы.
    F               Am     G                 Am
      О, маленькая девочка    со взглядом волчицы.
    
    
    [Bridge]
           
    e|---------0---|--1---------|---------1--|--0---------|---------0--| 
    H|---0h1h3-----|-----1-1----|-------1----|-----1---1--|---0h1h3----| 
    G|-2---------2-|---------2--|--2--2------|------------|-2---------2| 
    D|---------2---|--3---------|--3---------|------------|---------2--| 
    A|-0-----------|-------3----|-------3----|--0---------|-0----------| 
    E|-------------|------------|------------|-------0----|------------| 
    
                   III----------
    e|--1----------|-5--------5-|-3----------|-----5p3-----|------------| 
    H|----1--1-----|---3---6----|----0-----0-|---0-----5p3-|--1---------| 
    G|----------2--|------------|------------|-------------|-----2---2--| 
    D|--3----------|-3----------|-------0----|-----0-------|------------| 
    A|-------3-----|-------3----|------------|-------------|--0---------| 
    E|-------------|------------|-3----------|-3-----------|-------0----| 
    
    e|----------0--|-3----------|------------| 
    H|-------1-----|----0-----0-|----------1-|      
    G|----2--------|------------|-------2----| 
    D|-------------|-------0----|----0-------| 
    A|-0-----------|------------|------------| 
    E|-------------|-3----------|-3----------| ...
    
    
    Am              Dm F             Am
      Спи сладким сном, не помни о прошлом.
                 Dm    F          Am
      Дом, где жила ты, пуст и заброшен.
                  Dm  F           Am
      И мхом обрастут   плиты гробницы.
    F               Am     G                Am
      О, маленькая девочка   со взглядом волчицы.
    

    Тональность:

    Отправитель: WiFi

    Нет текста!



    Назад
    Рекомендуем посмотреть другие песни исполнителя «Крематорий»:

    • Комментарии Facebook ()
    • Комментарии ВКонтакте



    Добавить в Избранное Браузера
    Сохранить здесь Очистить


    x

    0


    +
    -

    +
    -

    -

    Авторизация





    Зарегистрироваться

    M

    Дата и время

    • 12:35:43
       

    Социальные ссылки


    Наши приложения

    • Muzbank App Play Market
    • Muzbank Amazon App