MUZBANK



A Most Complete Bank Of Music Information

МУЗЫКАЛЬНО-ИНФОРМАЦИОННЫЙ БАНК

Поиск по сайту







    ККрематорий • Мусорный ветер (аккорды и текст - chords & lyrics)


    1498

    Print

    Видео «Мусорный ветер (Крематорий)»

    Видео клипы к песне подбираются автоматически сайтом youtube. Возможны некоторые несоответствия клипов песне.

    ↑ Спрятать рекламу ↑



    Download



    Em                        Н
    Мусорный ветер, дым из трубы
    Em                     Н
    Плач природы, смех сатаны
        C     Am      Fm#
    А все оттого, что мы
       C     Am     Fm#        Н        Em
    Любили ловить ветра и разбрасывать камни
    
    Песочный город, построенный мной
    Давным-давно смыт волной
    Мой взгляд похож на твой
    В нем нет ничего кроме снов и забытого счастья
    
          Am            D
          Дым на небе, дым на земле
             G           Em
          Вместо людей машины
          Am                D
          Мертвые рыбы в иссохшей реке
            G             Em
          Зловонный зной пустыни
         C              Am         Fm#  Н
          Моя смерть разрубит цепи сна
         Н                Em
          Когда мы будем вместе
    
    Ты умна, а я идиот
    И неважно, кто из нас раздает
    Даже если мне повезет
    И в моей руке будет туз в твоей будет joker
    
    Так не бойся милая, ляг на снег
    Слепой художник напишет портрет
    Воспоет твои формы поэт
    И станет звездой актер бродячего цирка
    
          Дым на небе, дым на земле
          Вместо людей машины
          Мертвые рыбы в иссохшей реке
          Зловонный зной пустыни
          Моя смерть разрубит цепи сна
          Когда мы будем вместе
    
    E|-7-----------7-|-5--2---0-2-5--|-3--0------0-3-|-2---------2-|
    B|----5--5-7-8---|------3--------|-------1-3-----|---4-0-2-4---|
    
    E|-7-----------7-|-5--2---0-2-5--|-3--0------0-3-|-2---------2-|
    B|----5--5-7-8---|------3--------|-------1-3-----|---4-0-2-4---|
    
    E|-2-3-2-0---------|
    B|-----------------|
    
         Мусорный ветер - басовая партия
    
    A|---------------------------2-|-------------------------2-----|
    E|--0--------------0--3---5----|-3-0-------------0---3-5-------|
      Мусорный ветер, дым из трубы    плач природы, смех сатаны
    
    A|-2-3-----3-------------------|--2-3----3---------------------|
    E|-----------5-----3-2---------|-----------5----3-2------------|
       А все оттого, что мы          любили ловить ветра
    
    A|--------2-----2--------------|-------------------------------|
    E|-----2-----------0-----------|-------------------------------|
         и разбрасывать камни
    
         Песочный город, построенный мной
         Давным-давно смыт волной
         Мой взгляд похож на твой
         В нем нет ничего кроме снов и забытого счастья
    
    A|---------------5----5--5-----|-------------------------------|
    E|--5---5--5-7---------------5-|-3-----3--3---2-0-0---0-2-4----|
       Дым на небе, дым на земле    вместо людей машины
    
    A|-----------------5-------5-5-|-------------------------------|
    E|--5---5--5-7-----------------|---5-3---3--3----2-0-0---------|
       Мертвые рыбы в иссохшей реке  зловонный зной пустыни
    
    A|---2-3------3----------------|--------2---2------------------|
    E|---------------5-------3-2---|--2---------------0------------|
      Моя смерть разрубит цепи сна   когда мы будем вместе
    

    Тональность:

    Нет текста!



    Назад
    Рекомендуем посмотреть другие песни исполнителя «Крематорий»:

    • Комментарии Facebook ()
    • Комментарии ВКонтакте



    Добавить в Избранное Браузера
    Сохранить здесь Очистить


    x

    0


    +
    -

    +
    -

    -

    Авторизация





    Зарегистрироваться

    M

    Дата и время

    • 01:18:40
       

    Социальные ссылки


    Наши приложения

    • Muzbank App Play Market
    • Muzbank Amazon App