MUZBANK



A Most Complete Bank Of Music Information

МУЗЫКАЛЬНО-ИНФОРМАЦИОННЫЙ БАНК

Поиск по сайту







    ККрематорий • Мусорный ветер (аккорды и текст - chords & lyrics)


    301

    Print

    Видео «Мусорный ветер (Крематорий)»

    Видео клипы к песне подбираются автоматически сайтом youtube. Возможны некоторые несоответствия клипов песне.

    ↑ Спрятать рекламу ↑



    Download



     
    
    
    Em                  D                 C
    1-------------------------------------------------------
    2-------------------------------------------------------
    3--4---------------4--2-----------2--2--0-------------0-
    4-----2--2--4--5---------4--0--4-----------2----0--2---
    5---------------------------------------------3---------
    6-------------------------------------------------------
      H7
    1-------------------
    2-------------------
    3-------------------
    4--4--1----1--4--4--
    5--------2----------
    6-------------------
      Em                 D                  C
    1-------------------------------------------------------
    2-------------------------------------------------------
    3--4---------------4--2-----------2--2--0-------------0-
    4-----2--2--4--5---------4--0--4-----------2----0--2---
    5---------------------------------------------3---------
    6-------------------------------------------------------
     
       H7                     Em
    1--------------------------
    2--------------------------
    3--------------------------
    4--4--1----1--4--4--5--4--2
    5--------2-----------------
    6--------------------------
    
             Em              H7
    Мусорный ветер- дым из трубы,
              Em             H7
    Плач природы, крик сатаны,
      C        Am       F#m  
    А все от того что мы, 
      C        Am       F#m   
    Любили ловить ветра 
      H7            Em
    И разбрасывать камни.
    
    Песочный город построенный мной,
    Давным-давно смыт волной,
    Мой взгляд похож на твой,
    В нем нет ничего кроме снов
    И забытого счастья.
    
    ПРИПЕВ:
    EmEm   Am           D
          Дым на небе, дым на земле
           G              Em
          Вместо людей - машины,
           Am           D
          Мертвые рыбы в иссохшей воде,
            G              Em
          Зловонный зной пустыни.
           C          Am            F#m
          Моя смерть разрубит цепи зла,
           H7                 Em
          Когда мы будем вместе. 
    
    Ты умна, а я идиот, 
    И неважно кто из нас раздает
    Даже если мне повезет, 
    И в моей руке будет туз,
    В твоей будет джокер.
    
    Так не бойся милая ляг на снег,
    Слепой художник напишет портрет,
    Воспоет твои формы поэт,
    И станет звездой актер
    Бродячего цирка.
    
    ПРИПЕВ. 2раза
     

    Тональность:

    Нет текста!



    Назад
    Рекомендуем посмотреть другие песни исполнителя «Крематорий»:

    • Комментарии Facebook ()
    • Комментарии ВКонтакте



    Добавить в Избранное Браузера
    Сохранить здесь Очистить


    x

    0


    +
    -

    +
    -

    -

    Авторизация





    Зарегистрироваться

    M

    Дата и время

    • 14:42:20
       

    Социальные ссылки


    Наши приложения

    • Muzbank App Play Market
    • Muzbank Amazon App