MUZBANK



A Most Complete Bank Of Music Information

МУЗЫКАЛЬНО-ИНФОРМАЦИОННЫЙ БАНК

Поиск по сайту







    KKutless • In Me (аккорды и текст - chords & lyrics)


    225

    Print

    Видео «In Me (Kutless)»

    Видео клипы к песне подбираются автоматически сайтом youtube. Возможны некоторые несоответствия клипов песне.

    ↑ Спрятать рекламу ↑



    Download


     
    
    
    In Me by Kutless
    Standard Tuning
    
    (Intro)(0.10)
    G:-----------|-----------|-----------|-----------|
    D:-----------|-----------|-----------|-----------|
    A:8-10-8--8-8|8-10-8--8-8|8-10-8--8-8|8-10-8--8-8|
    E:-----------|-----------|-----------|-----------|
    
    G:-----------|-----------|-----------|-----------|
    D:-----------|-----------|-----------|-----------|  x2
    A:-10-----10-|-10-----10-|6--6--6--6-|-8--8--8--8|
    E:-----------|-----------|-----------|-----------|
    
    G:-----------|-----------|-----------|-----------|
    D:-----------|-----------|-----------|-----------|
    A:10---6-----|-8-------5-|-10-----6--|-8--------5|
    E:-----------|-----------|-----------|-----------|
    
    
    (Chorus)
    G:-----------|-----------|-----------|-----------|
    D:-------8--8|-----------|-------8--8|-----------|  x2
    A:10--10-----|8--8--8--8-|10--10-----|8--8--8--8-|
    E:-----------|-----------|-----------|-----------|
    
    G:-----------|-----------|-----------|-----------|
    D:-----------|-----------|-----------|-----------|
    A:8-10-8--8-8|8-10-8--8-8|8-10-8--8-8|8-10-8--8-8|
    E:-----------|-----------|-----------|-----------|
    
    G:-----------|-----------|-----------|-----------|
    D:-----------|-----------|-----------|-----------|
    A:10---6-----|-8-------5-|-10------6-|-8------5--|
    E:-----------|-----------|-----------|-----------|
    
    G:-----------|-----------|-----------|-----------|
    D:-------8--8|-----------|-------8--8|-----------|  x2
    A:10--10-----|8--8--8--8-|10--10-----|8--8--8--8-|
    E:-----------|-----------|-----------|-----------|
    
    G:-----------|-----------|-----------|-----------|
    D:-----------|-----------|-----------|-----------|
    A:10--10--10-|-----------|10--10--10-|-----------|
    E:-----------|-----------|-----------|-----------|
    
    G:-----------|-----------|-----------|-----------|-----------|-----------|
    D:-----------|-----------|-----------|-----------|-----------|-----------|
    A:-8------10-|-10------8-|-8------10-|-10------8-|-8------10-|-10------8-|
    E:-----------|-----------|-----------|-----------|-----------|-----------|
    
    G:-----------|-----------|-----------|-----------|-----------|-----------|
    D:-----------|-----------|-----------|-----------|-----------|-----------|
    A:-8------10-|-10------8-|-8------10-|-10------8-|-8------10-|-10------8-|
    E:-----------|-----------|-----------|-----------|-----------|-----------|
    
    (Chorus)
    G:-----------|-----------|-----------|-----------|
    D:-------8--8|-----------|-------8--8|-----------|  x2
    A:10--10-----|8--8--8--8-|10--10-----|8--8--8--8-|
    E:-----------|-----------|-----------|-----------|
    
                                         |---Outro---|
    G:-----------|-----------|-----------|-----------|
    D:-----------|-----------|-----------|-----------|
    A:8-10-8--8-8|8-10-8--8-8|8-10-8--8-8|8-10-8-----|
    E:-----------|-----------|-----------|-----------|
    
    Thanks, please rate after you learn it.
    Tabbed by:
    _TheBassist01_
     

    Тональность:

    Нет текста!



    Назад
    Рекомендуем посмотреть другие песни исполнителя «Kutless»:

    • Комментарии Facebook ()
    • Комментарии ВКонтакте



    Добавить в Избранное Браузера
    Сохранить здесь Очистить


    x

    0


    +
    -

    +
    -

    -

    Авторизация





    Зарегистрироваться

    M

    Дата и время

    • 18:38:40
       

    Социальные ссылки


    Наши приложения

    • Muzbank App Play Market
    • Muzbank Amazon App