MUZBANK



A Most Complete Bank Of Music Information

МУЗЫКАЛЬНО-ИНФОРМАЦИОННЫЙ БАНК

Поиск по сайту







    KKyuss • Mudfly (аккорды и текст - chords & lyrics)


    212

    Print

    Видео «Mudfly (Kyuss)»

    Видео клипы к песне подбираются автоматически сайтом youtube. Возможны некоторые несоответствия клипов песне.

    ↑ Спрятать рекламу ↑



    Download


     
    
    
    Artist : Kyuss
    Song : Mudfly
    Album: Muchas Gracias: The Best of Kyuss (2000)
    Tuning: C-F-Bb-Eb
    Notes:
    
    ^ : Bend
    / : Slide Up
    h : Hammer-On
    
    
    Verse:                    / This slide is very fast
    Eb|----------------------------|
    Bb|----------------------------|
    F |-----------------------/12^-|
    C |-0-0-0-0-0---0-0-0-0--------| (x8)
    
    
    Chorus: Play the hammer-on very fast
    Eb|-----9---------------9-7h9-------------|
    Bb|----------9-8-7------------9-8-7-(/16)-|
    F |-7-7--7-7--------7-7-------------------|
    C |---------------------------------------| (x4)
                                        (x) last time only
    
    Verse: (x8)
    
    Chorus: (x4)
    
    Final Verse:
    Eb|-----------------------|
    Bb|-----------------------|
    F |-----------------------|
    C |-0-0-0-0-0---0-0-0-0//-| (x4)
    
    Eb|---------------------|
    Bb|---------------------|
    F |---------------------|
    C |-0-0-0-0-0---0-0-0-0-| (x4)
    
    
    
    C-A-D-G TUNING
    
    
    Verse:                   / This slide is very fast
    G|---------------------------|
    D|---------------------------|
    A|-----------------------/8^-|
    C|-0-0-0-0-0---0-0-0-0-------| (x8)
    
    
    Chorus:  Play the hammer-on very fast
    G|-----5---------------5-3h5-------------|
    D|----------5-4-3------------5-4-3-(/12)-|
    A|-3-3--3-3--------3-3-------------------|
    C|---------------------------------------| (x4)
                                        (x) last time only
    
    Verse: (x8)
    
    Chorus: (x4)
    
    Final Verse:
    G|-----------------------|
    D|-----------------------|
    A|-----------------------|
    C|-0-0-0-0-0---0-0-0-0//-| (x4)
    
    G|---------------------|
    D|---------------------|
    A|---------------------|
    C|-0-0-0-0-0---0-0-0-0-| (x4)
     

    Тональность:

    Нет текста!



    Назад
    Рекомендуем посмотреть другие песни исполнителя «Kyuss»:

    • Комментарии Facebook ()
    • Комментарии ВКонтакте



    Добавить в Избранное Браузера
    Сохранить здесь Очистить


    x

    0


    +
    -

    +
    -

    -

    Авторизация





    Зарегистрироваться

    M

    Дата и время

    • 01:11:11
       

    Социальные ссылки


    Наши приложения

    • Muzbank App Play Market
    • Muzbank Amazon App