MUZBANK



A Most Complete Bank Of Music Information

МУЗЫКАЛЬНО-ИНФОРМАЦИОННЫЙ БАНК

Поиск по сайту







    KKyuss • One Inch Man (аккорды и текст - chords & lyrics)


    219

    Print

    Видео «One Inch Man (Kyuss)»

    Видео клипы к песне подбираются автоматически сайтом youtube. Возможны некоторые несоответствия клипов песне.

    ↑ Спрятать рекламу ↑



    Download



     
    
    
    Kyuss - One Inch Man
    Tuning: Down 2 Whole Steps to C (C-F-Bb-Eb-G-C)
     
    Intro:
    Guitar 1: plays the 9th fret on the F string
    Guitar 2:
    Riff A. Fill 1. Fill 2.Fill 3.Fill 4.
    C|-----------|----------|------|------|-12b--||
    G|-----------|----------|------|-12b--|------||
    Eb|-12p10----|-7h107h10-|-10b--|------|------||
    Bb|------h12-|----------|------|------|------||
    F|-----------|----------|------|------|------||
    C|-----------|----------|------|------|------||
    
    Rhythm 1: (both Guitars)
    C|---------------------||
    G|---------------------||
    Eb|--------------------||
    Bb|-7-77-779-9910-1010-||
    F|--7-77-779-9910-1010-||
    C|--5-55-557-77-8--8-8-||
    
    Lead 1: (w/wah)               x7                   x1
    C|------------------------------|-------------11b--||
    G|------------------------------|----11b-11--------||
    Eb|-9h119h119h119h119h119h1199~-|-119------119-----||
    Bb|-----------------------------|------------------||
    F|------------------------------|------------------||
    C|------------------------------|------------------||
    
    Rhythm 2: (Both Guitars)
    C|------------------||
    G|------------------||
    Eb|-----------------||
    Bb|-----------------||
    F|--4-444444-10-9-7-||
    C|--2-222222--8-7-5-||
    
    Lead 2: x3
    C-|-------------8~--------------------------8~-8-----||
    G|---------------------------------------------------||
    Eb|-9h1111911911---11p9~--9h1111911911911911----11p9-||
    Bb|--------------------------------------------------||
    F|---------------------------------------------------||
    C|---------------------------------------------------||
    x1
    C|--------------8~-------8~-------810br------||
    G|-------------------------------------------||
    Eb|-9h1111911911---11p9~----11p9~------11p9~-||
    Bb|------------------------------------------||
    F|-------------------------------------------||
    C|-------------------------------------------||
    (This is played on Guitar 2. - Guitar 1. continues with Rhythm 2)
    
    Coda: (Both Guitars)
    C|--------------------------||
    G|--------------------------||
    Eb|-------------------------||
    Bb|-7-77-779-9910-----------||
    F|--7-77-779-9910---4-------||
    C|--5-55-557-77-8---2-------||
     

    Тональность:

    Нет текста!



    Назад
    Рекомендуем посмотреть другие песни исполнителя «Kyuss»:

    • Комментарии Facebook ()
    • Комментарии ВКонтакте



    Добавить в Избранное Браузера
    Сохранить здесь Очистить


    x

    0


    +
    -

    +
    -

    -

    Авторизация





    Зарегистрироваться

    M

    Дата и время

    • 22:57:31
       

    Социальные ссылки


    Наши приложения

    • Muzbank App Play Market
    • Muzbank Amazon App