MUZBANK



A Most Complete Bank Of Music Information

МУЗЫКАЛЬНО-ИНФОРМАЦИОННЫЙ БАНК

Поиск по сайту







    LLagwagon • Alien 8 (аккорды и текст - chords & lyrics)


    245

    Print

    Видео «Alien 8 (Lagwagon)»

    Видео клипы к песне подбираются автоматически сайтом youtube. Возможны некоторые несоответствия клипов песне.

    ↑ Спрятать рекламу ↑



    Download


     
    
    
    -----------------------------------------------------------------------
                      ALIEN 8     LAGWAGON   
    -----------------------------------------------------------------------
    
    > MEANS STRUM
    
    G]-------------------------------------------]
    D]-------------------------------------------]
    A]-------5>-7>----5-5-5-------2-2-2----------]
    E]-5>-7>-------5>-------2-2-2-------0-0-0-5>-]
    
    PLAY THIS OVER SOLO
    G]-----------------------------------------------------------------------
    D]-----------------------------------------------------------------------
    A]-------5>----------5>-7>----5-5-5-------2---2-2-5-5-5-------2-2------2-
    E]-5>-7>----5>-5>-7>-------5>-------2-2-2---------------2-2-2------------
    
    ------------------------]
    ------------------------]
    -5-5-----2-2------------]
    -----2-2-----0-0-5----5-]
    
    DO YOU EVER STOP.....
    G]-9-11---11-14-16--16-9-]
    D]-7--9----9-12-14--14-7-]
    A]-----------------------]
    E]-----------------------]
    
    
    G]------------------------------------------------------------------------
    D]------------------------------------------------------------------------
    A]-------5>-7>----5-5-5-------2-2-2-5-5-5-------2-2-2-5-5-5-------2-2-2---
    E]-5>-7>-------5>-------2-2-2-------------2-2-2-------------2-2-2---------
    
    -------------------]
    -------------------]
    ----------4>-------]
    -0-0-0-5>----5---5-]
     

    Тональность:

    Нет текста!



    Назад
    Рекомендуем посмотреть другие песни исполнителя «Lagwagon»:

    • Комментарии Facebook ()
    • Комментарии ВКонтакте



    Добавить в Избранное Браузера
    Сохранить здесь Очистить


    x

    0


    +
    -

    +
    -

    -

    Авторизация





    Зарегистрироваться

    M

    Дата и время

    • 15:51:36
       

    Социальные ссылки


    Наши приложения

    • Muzbank App Play Market
    • Muzbank Amazon App