MUZBANK



A Most Complete Bank Of Music Information

МУЗЫКАЛЬНО-ИНФОРМАЦИОННЫЙ БАНК

Поиск по сайту







    LLagwagon • Bro Dependent (аккорды и текст - chords & lyrics)


    248

    Print

    Видео «Bro Dependent (Lagwagon)»

    Видео клипы к песне подбираются автоматически сайтом youtube. Возможны некоторые несоответствия клипов песне.

    ↑ Спрятать рекламу ↑



    Download


     
    
    
    -----------------------------------------------------------------------
                 BRO DEPENDENT         LAGWAGON
    -----------------------------------------------------------------------
    
    INTRO
    G]---------------------------------------------]
    D]-------------------------------------------9-]
    A]----4-4-5>----4-4-5>-----4-4-5>-----4-4-5>-9-]
    E]-5-5-------5-5-------5-5--------5-5--------7-]
    
    VERSEx4
    G]-----------]
    D]-----------]
    A]----4-4-5>-]
    E]-5-5-------]
    
    PRE-CHORUS
    G]--------------------------]
    D]--------------7-6---------]
    A]-----5---7--------9-7-9-7-]
    E]-5------------------------]
    
    CHORUS
    G]----------------------------------------]
    D]----------------------------------------]
    A]----4-5-5------4-5-5------4-5-5------7>-]
    E]-5>-------4-5>-------4-5>-------4-5>----]
    
    VERSE
    PRE-CHORUS
    CHORUS
    
    BRIDGE
    G]---------------------------]
    D]---------------------------]
    A]----5>---------------5>-7>-]
    E]-7>----7>-5-5-2-2-7>-------]
    
    VERSE
    PRE-CHORUS
    CHORUS
     

    Тональность:

    Нет текста!



    Назад
    Рекомендуем посмотреть другие песни исполнителя «Lagwagon»:

    • Комментарии Facebook ()
    • Комментарии ВКонтакте



    Добавить в Избранное Браузера
    Сохранить здесь Очистить


    x

    0


    +
    -

    +
    -

    -

    Авторизация





    Зарегистрироваться

    M

    Дата и время

    • 15:11:02
       

    Социальные ссылки


    Наши приложения

    • Muzbank App Play Market
    • Muzbank Amazon App