MUZBANK



A Most Complete Bank Of Music Information

МУЗЫКАЛЬНО-ИНФОРМАЦИОННЫЙ БАНК

Поиск по сайту







    LLagwagon • Island Of Shame (аккорды и текст - chords & lyrics)


    215

    Print

    Видео «Island Of Shame (Lagwagon)»

    Видео клипы к песне подбираются автоматически сайтом youtube. Возможны некоторые несоответствия клипов песне.

    ↑ Спрятать рекламу ↑



    Download


     
    
    
    -----------------------------------------------------------------------
                      ISLAND OF SHAME    LAGWAGON
    -----------------------------------------------------------------------
    
    >Means Strum
    
    INTRO
    G]------------------------------------]
    D]-14-5-10-----------14-5-10----------]
    A]-12-7-8--3-5-7-5-3-12-7-8--3>-5>-7>-]
    E]------------------------------------]
    PLAY INTRO AGAIN BUT STRUM ALL THE NOTES
    
    PART A
    G]--------------------------------]
    D]--------------------7-----------]
    A]-8>-5>-7>-8>-5>---7----8>-5>-7>-]
    E]----------------5---------------]
    
    VERSE
    G]----------------------------------------------------------------
    D]----------------------------------------------------------------
    A]----8-8-7-8-8-----------5-5-5-3-2-----------8-8-7-8-8---------5-
    E]-5>-----------8-8-7-8-8-----------5-5-3-5-5-----------8-8-7-8---
    
    ---------------------------------------------------------------------
    ---------------------------------------------------------------------
    -----------8-8-7-8-8-----------5-5-3-2-----------8-8-7-8-8-----------
    -5-5-3-5-5-----------8-8-7-8-8---------5-5-3-5-5-----------8-8-7-8-8-
    
    --------------]
    --------------]
    -5-5-5-5-8-10-]
    --------------]
    
    CHORUS
    G]-----------------------------------------------2-0---0---------------------
    D]---------7---------7-----------------3-3-3-2-0-----2---2-0---2-0-----0-----
    A]-8---7-8---10-8-10---------------3-5-----------------------3-----3-2---3-2-
    E]---8-----------------5-3-5-8-5-3-------------------------------------------
    
    SOLO PART
    G]---------------------------------------]
    D]---------------------------------------]
    A]-------3---3-3-3-7-5-3-------3---------]
    E]-5-5-5---5-------------5-5-5---5-3>-5>-]
    
    VERSE
    CHORUS
    
    BRIDGE1                               PLAY THIS PART A COUPLE TIMES
    G]----------------------------------|-------------]
    D]----------------------------------|-------------]
    A]----------------------3-3-5-5-7-7-|-------------]
    E]-5--3--1--3--5--3--1--------------|-5>-3>-1>-3>-]
    
    BRIDGE2 (till pause)
    G]-------------]          [-------]
    D]-------------]          [-------]
    A]----3>-5>-7>-]          [-7-7-7-]
    E]-5>----------]          [-------]
    
    PART A TILL END
     

    Тональность:

    Нет текста!



    Назад
    Рекомендуем посмотреть другие песни исполнителя «Lagwagon»:

    • Комментарии Facebook ()
    • Комментарии ВКонтакте



    Добавить в Избранное Браузера
    Сохранить здесь Очистить


    x

    0


    +
    -

    +
    -

    -

    Авторизация





    Зарегистрироваться

    M

    Дата и время

    • 11:20:51
       

    Социальные ссылки


    Наши приложения

    • Muzbank App Play Market
    • Muzbank Amazon App