MUZBANK



A Most Complete Bank Of Music Information

МУЗЫКАЛЬНО-ИНФОРМАЦИОННЫЙ БАНК

Поиск по сайту







    LLagwagon • Lazy (аккорды и текст - chords & lyrics)


    237

    Print

    Видео «Lazy (Lagwagon)»

    Видео клипы к песне подбираются автоматически сайтом youtube. Возможны некоторые несоответствия клипов песне.

    ↑ Спрятать рекламу ↑



    Download


     
    
    
    --------------------------------------------------------
                  LAGWAGON-Lazy
    --------------------------------------------------------
       intro:
    g]---------
    d]---0-2-4-
    a]-0-------
    e]---------
      part A
    g]------------------------------------------------------
    d]------------------------------------------------------
    a]-3-3-3-3-3-3-2-2-2-2-2-2-------------5-5-5-5-5-10-10--
    e]-------------------------0-0-0-0-0-0------------------
    
    g]------------------------------------------------------
    d]-------------------------------14-14-14-14-14-14-12-12
    a]-10-10-10-10-14-14-14-18-17-18------------------------
    e]------------------------------------------------------
    
    g]------------------------------------------------------
    d]12-12-12-12-------------------------------------------
    a]------------3-3-3-3-3-3-2-2-2-2-2-2-------------5-5-5-
    e]------------------------------------3-3-3-3-3-3-------
    
    g]-------------------------------
    d]-------------------------------
    a]-5-5-5-3-3-3-3-3-3-2-2-2-2-2-2-
    e]-------------------------------
        chorous thing part B
    g]----------------------------
    d]----------------------------  4 times
    a]--------3-3-3-3---------3-3-
    e]-0-0-0-0--------3-3-3-3-----
    
    part C
    g]---4-2-0----------4-2-0---------4-2-0-----------------
    d]---------4-2-0----------4-2-0---------4-2-0-----------
    a]----------------5---------------------------3-2-------
    e]-0----------------------------5-----------------------
    
    g]---4-2-0---------4-2-0---------4-2-0------------------
    d]---------4-2-0---------4-2-0---------4-2-0-------2-4--
    a]---------------5-----------------------------2-5------
    e]-0---------------------------5-------------3----------
    
    part A
    
    Part b
    
    part c play 4 times and play this on the last time
    
    g]---------------4-2-0---------------0-----------------
    a]---------------------4-2-0---2-0-----2---------------
    d]-7-7-7-7-7-5-5-------------0-----3-----3-------------
    e]-----------------------------------------------------
    
    part a
    part b
     

    Тональность:

    Нет текста!



    Назад
    Рекомендуем посмотреть другие песни исполнителя «Lagwagon»:

    • Комментарии Facebook ()
    • Комментарии ВКонтакте



    Добавить в Избранное Браузера
    Сохранить здесь Очистить


    x

    0


    +
    -

    +
    -

    -

    Авторизация





    Зарегистрироваться

    M

    Дата и время

    • 21:39:22
       

    Социальные ссылки


    Наши приложения

    • Muzbank App Play Market
    • Muzbank Amazon App