MUZBANK



A Most Complete Bank Of Music Information

МУЗЫКАЛЬНО-ИНФОРМАЦИОННЫЙ БАНК

Поиск по сайту







    LLarc En Ciel • Dive To Blue (аккорды и текст - chords & lyrics)


    274

    Print

    Видео «Dive To Blue (Larc En Ciel)»

    Видео клипы к песне подбираются автоматически сайтом youtube. Возможны некоторые несоответствия клипов песне.

    ↑ Спрятать рекламу ↑



    Download


     
    
    
    ken
    
    E||------------------|--5--------4--------5-----|-----4--------5--------4--|
    B||------------------|-----5--5-----5--5-----5--|--5-----5--5-----5--5-----|
    G||------------------|--------------------------|--------------------------|
    D||------------------|--------------------------|--------------------------|
    A||------------------|--------------------------|--------------------------|
    E||------------------|--------------------------|--------------------------|
    
    --------5--------5--------|--12--12--12--12--12--10--10--9---|
    --5--5-----5--5-----5--5--|--10--10--10--10--10--10--10--10--|
    --------------------------|--11--11--11--11--11--11--11------|
    --------------------------|------------------------------12--|
    --------------------------|----------------------------------|
    --------------------------|----------------------------------|
    
    ----------9----------10----------|--7--------9--------7-----|
    --10---------10--10------10--10--|-----9--9-----9--9-----9--|
    ------11-------------------------|--------------------------|
    ---------------------------------|--------------------------|
    ---------------------------------|--------------------------|
    ---------------------------------|--------------------------|
    
    -----------------------------|--------------------------------|
    --10-----10--------10--------|--10--10--10--10--10--10--9--9--|
    ------9------9--9------9--9--|------9---9---9---9---9---9--9--|
    -----------------------------|------9---9---9---9---9---9--9--|
    -----------------------------|------7---7-------7---7------7--|
    -----------------------------|--------------------------------|
    
    ----------------------------|---------------------------|
    --10--------9--------10-----|--9--------10--------9-----|
    ------9--9-----9--9------9--|-----9--9------9--9-----9--|
    ----------------------------|---------------------------|
    ----------------------------|---------------------------|
    ----------------------------|---------------------------|
    
    ---------------------------|----------10----9---10----10--|
    --------10--------9--------|--10------10----10--------10--|
    --9--9------9--9-----9--9--|------11--11----11--------11--|
    ---------------------------|------------------------------|
    ---------------------------|------------------------------|
    ---------------------------|------------------------------|
    
    ----------9----------10----------|---------9--------7--5--4--|
    --10-----------------------------|--9------------------7--5--|
    --11--11-----11--11------11--11--|--11--9-----9--9-----------|
    ---------------------------------|---------------------------|
    ---------------------------------|---------------------------|
    ---------------------------------|---------------------------|
    
    --5-----5--------4--------|--12--12--12--12--12--10--0-----|
    -----5-----5--5-----5--5--|--10--10--10--10--10--10--14----|
    --------------------------|--------------------------14----|
    --------------------------|--12--12--12--12--12--12--18----|
    --------------------------|--------------------------------|
    --------------------------|--------------------------------|
    
    ------0-----0------------|------------------|----------------5--|
    --------------10---------|------------------|-------------------|
    -------------------------|------------------|-------------------|
    -------------------------|------------------|-------------------|
    ---------12--------------|------------------|-------------------|
    -------------------------|------------------|-------------------|
    
    ---------12--10-----0----|-------------------|----------2--7----1--|
    -------------------------|-------------------|----------2-------2--|
    ---------11--11--------9-|-------------------|----------2--6----6--|
    ---------10--10----------|-------------------|-------------7-------|
    --------------------12---|-------------------|---------------------|
    -------------------------|-------------------|---------------------|
    
    ------------------|----------4--4----5--|-------5--------5----4--|
    ------------------|----------5--5----5--|----5--5--5--5--5----5--|
    ------------------|----------4--4----6--|-------6--------6----4--|
    ------------------|---------------------|------------------------|
    ------------------|---------------------|------------------------|
    ------------------|---------------------|------------------------|
    
    -------5--------4-----5--|-------2--0--4--2--0--12--|
    ----5--5--5--5--5--5-----|----5--2--------1-----10--|
    -------4--------4-----6--|-------5--------1-----11--|
    ----------------------7--|----------------------12--|
    -------------------------|--------------------------|
    -------------------------|--------------------------|
    
    ----10--------9---10--------|----------------------------------|
    ----10--10----10--14--------|----------------------------------|
    ----11--11----11--14----14--|--------14------13--14--------14--|
    ----12--12----12--16----14--|----14--14--14---------14-14--14--|
    ------------------17----12--|--------12----------12--------14--|
    ----------------------------|----------------------------------|
    
    --------------------------------|-------------------------------|
    --------------------------------|--------------------10-----10--|
    --------14------13--14------14--|--------14------13--11--9------|
    ----14--14--14------14--14--16--|----14--16--14------11---------|
    --------14----------14------16--|--------16---------------------|
    --------------------------------|-------------------------------|
    
    -------12--12--12--10--9---10--|----------------------------|
    ----7--10--10--10--10--10--10--|--------9---------9---------|
    -------11--11--11--11--11--11--|--------9---------9-----9---|
    -------12--12--12--12--12--12--|--------11--------11----11--|
    -------------------------------|----------------------------|
    -------------------------------|--9--9------9--9------------|
    
    ------------------------------|-------------------------|
    --9---------------------------|--------7--------7-------|
    --9-----11--11----11--11--11--|--------7--------7-------|
    --11----12--12----12--12--12--|--------7--------7-------|
    --11----12--12----12--12--12--|-------------------------|
    --------10--10----10--10--10--|--7--7-----7--7-------7--|
    
    ------------------------|--------0--------0--------|---------------------------|
    --7----7--7----7--7--7--|--------2--------2--------|---------------------3--3--|
    --7----7--7----7--7--7--|--------1--------1--------|-------2--2------2---2--2--|
    --7----7--7----7--7--7--|--------------------------|--0-------7------3---7--2--|
    --5----5--5----5-----5--|--4--4-----4--4-----4--4--|----------12-----7---------|
    ------------------9-----|--------------------------|-----------------10--------|
    
    -------------------------|----------0----------0--|----0--5--0--0--5--0-----|
    --------0--------0-------|---------------3--2--2--|----2--5--2--2--5--2---0-|
    --------7--------7-------|-----2----2----2--2--2--|----2--6--2--2--6--2---0-|
    --------7--------7-------|--7--0----0----0--0-----|-------7--------7--------|
    --2--2-----------7-------|--5---------------------|-----------------------2-|
    --------8--7--7-------7--|------------------------|-------------------------|
    
    -------------------------|-----------------------4--|----0--0----4--4--4--4--|
    ----0--0-----0--0--0-----|--------------3-----3-----|----5--0----5--5--5--5--|
    ----0--4-----0--5--4--6--|---6--6-6-----1--6--6--0--|------------6--6--6--6--|
    ----------------------4--|---4--4-------4--4-----6--|-------6----6--6--6--6--|
    ----2--------2--------7--|---7-------------7--4-----|----6-------------------|
    -------3--------7--3-----|-----------------------7--|----7--7----------------|
    
    --10---5--5--9--5--5--10------|---9---------10----------9------|
    --------------------------10--|-----10--10------10--10-----10--|
    ------------------------------|--------------------------------|
    ------------------------------|--------------------------------|
    ------------------------------|--------------------------------|
    ------------------------------|--------------------------------|
    
    --10----------9----------10-----|--12----12--12--12--12------0---|
    ------10--10-----10--10-----10--|--12----12--12--12--12--12------|
    --------------------------------|--13----13--13--13--13--13------|
    --------------------------------|--14----14--14--14--14--14--11--|
    --------------------------------|------------------------14--12--|
    --------------------------------|--------------------------------|
    
    ----0---0---0---0---0---0------|----0--0----0--0--0--2--|
    --------10----------10-------0-|----0--0----0--0--0--2--|
    -----------------------------0-|------------------------|
    ----11--11--11--11--11--11-----|----2--2----2--2--2--4--|
    ----12--12--12--12--12--12-----|------------------------|
    -----------------------------7-|------------------------|
    
    ----2--2----2--2--2--4--|----0--0----4--4--4--4--|
    ----2--2----2--2--2-----|----5--0----5--5--5--5--|
    ---------------------0--|------------6--6--6--6--|
    ----4--4----4--4--4--6--|-------6----6--6--6--6--|
    ------------------------|----6-------------------|
    ---------------------7--|----7--7----------------|
    
    --10---5--5--9--5--5--10------|---9---------10----------9------|
    --------------------------10--|-----10--10------10--10-----10--|
    ------------------------------|--------------------------------|
    ------------------------------|--------------------------------|
    ------------------------------|--------------------------------|
    ------------------------------|--------------------------------|
    
    --10----------9----------10-----|--12----12--12--12--12--0-----|
    ------10--10-----10--10-----10--|--12----12--12--12--12--15----|
    --------------------------------|--13----13--13--13--13--16----|
    --------------------------------|--14----14--14--14--14--18----|
    --------------------------------|------------------------------|
    --------------------------------|------------------------------|
    
    ----------------------------------|----------------------------------|
    ----------------------------------|----------------------------------|
    --14----------13----------14------|--13----------14----------13------|
    ------14--14------14--14------14--|------14--14------14--14------14--|
    ----------------------------------|----------------------------------|
    ----------------------------------|----------------------------------|
    
    ----------------------------------|----------10----9---10----10--|
    ----------------------------------|----------10----10--------10--|
    ----------14----------13----------|--14--11--11----11--------11--|
    --14--14------14--14------14--14--|------------------------------|
    ----------------------------------|------------------------------|
    ----------------------------------|------------------------------|
    
    ----------9----------10----------|---------9--------7--5--4--|
    --10-----------------------------|--9------------------7--5--|
    --11--11-----11--11------11--11--|--11--9-----9--9-----------|
    ---------------------------------|---------------------------|
    ---------------------------------|---------------------------|
    ---------------------------------|---------------------------|
    
    --5-----5--------4--------|----5----5--5--5--5----|---------------------|
    -----5-----5--5-----5--5--|-----------------------|----------0----------|
    --------------------------|----7----7--7--7--7----|----------6----------|
    --------------------------|----7----7--7--7--7----|--------7-10---------|
    --------------------------|----5----5--5--5--5----|---------------------|
    --------------------------|-----------------------|---------------------|
    
    ------------------|------------------|-------------1---0-1--|------------------|
    ------------------|------------------|----------0--3-----0--|------------------|
    ------------------|------------------|----------3--------1--|------------------|
    ------------------|------------------|----------5--------2--|------------------|
    ------------------|------------------|----------5--0--------|------------------|
    ------------------|------------------|----------------------|------------------|
    
    ------------7--------|------------------|----------4--4----5--|
    -----------------6---|------------------|----------5--5----5--|
    ------------6----6---|------------------|----------4--4----6--|
    ------------7----11--|------------------|---------------------|
    ---------------------|------------------|---------------------|
    ---------------------|------------------|---------------------|
    
    -------5--------4--5--4--|-------5--------4-----5--|----5--5-----4--2--0--12--|
    ----5--5--5--5--5--5--5--|----5--5--5--5--5--5--7--|----7--7--5-----1-----10--|
    -------6--------6--6--4--|-------4--------4-----6--|----6--6--------1-----11--|
    -------------------------|-------------------------|----------------------12--|
    -------------------------|-------------------------|--------------------------|
    -------------------------|-------------------------|--------------------------|
    
    ----10--------9---10--------|----------------------------------|
    ----10--10----10--14--------|----------------------------------|
    ----11--11----11--14----14--|--------14------13--14--------14--|
    ----12--12----12--16----14--|----14--14--14---------14-14--14--|
    ------------------17----12--|--------12----------12--------14--|
    ----------------------------|----------------------------------|
    
    --------------------------------|-------------------------------|
    --------------------------------|--------------------10-----10--|
    --------14------13--14------14--|--------14------13--11--9------|
    ----14--14--14------14--14--16--|----14--16--14------11---------|
    --------14----------14------16--|--------16---------------------|
    --------------------------------|-------------------------------|
    
    -------12--12--12--12--10--10--|----------------------------|
    ----7--10--10--10--10--10--10--|--------9---------9---------|
    -------11--11--11--11--11--11--|--------9---------9-----9---|
    -------12--12--12--12--12--12--|--------11--------11----11--|
    -------------------------------|----------------------------|
    -------------------------------|--9--9------9--9------------|
    
    ------------------------------|-------------------------|
    --9---------------------------|--------7--------7-------|
    --9-----11--11----11--11--11--|--------7--------7-------|
    --11----12--12----12--12--12--|--------7--------7-------|
    --11----12--12----12--12--12--|-------------------------|
    --------10--10----10--10--10--|--7--7-----7--7-------7--|
    
    ------------------------|--------0--------0--------|---------------------------|
    --7----7--7----7--7--7--|--------2--------2--------|---------------------3--3--|
    --7----7--7----7--7--7--|--------1--------1--------|-------2--2------2---2--2--|
    --7----7--7----7--7--7--|--------------------------|--0-------7------3---7--2--|
    --5----5--5----5-----5--|--4--4-----4--4-----4--4--|----------12-----7---------|
    ------------------9-----|--------------------------|-----------------10--------|
    
    -------------------------|----------0----------0--|----0--5--0--0--5--0--0--|
    --------0--------0-------|---------------3--2--2--|----2--5--2--2--5--2--0--|
    --------7--------7-------|-----2----2----2--2--2--|----2--6--2--2--6--2-----|
    --------7--------7-------|--7--0----0----0--0-----|-------7--------7-----2--|
    --2--2-----------7-------|--5---------------------|-------------------------|
    --------8--7--7-------7--|------------------------|-------------------------|
    
    ----0--0----0--0--0--2--|----2--12--12--12--12--12------|
    ----0--0----0--0--0--2--|----2--10--10--10--10--10--9---|
    ------------------------|-------11--11--11--11--11--9---|
    ----2--2----2--2--2--4--|----4--11--11--11--11--11--11--|
    ------------------------|---------------------------11--|
    ------------------------|-------------------------------|
    
    ------------------------------|--10-----------9----------10------|
    ----9---9-----9---9---9---9---|-------10--10-----10--10------10--|
    ----9---9-----9---9---9---9---|----------------------------------|
    ----11--11----11--11--11--11--|----------------------------------|
    ----11--11----11--11--11--11--|----------------------------------|
    ------------------------------|----------------------------------|
    
    ---9---------10----------9------|--10----------9----------10-----|
    -----10--10------10--10-----10--|------10--10-----10--10-----10--|
    --------------------------------|--------------------------------|
    --------------------------------|--------------------------------|
    --------------------------------|--------------------------------|
    --------------------------------|--------------------------------|
    
    --12----12--12--12--12------12--|----12--12--12--12--12--12--0---|
    --12----12--12--12--12--12------|--------10----------10------0---|
    --13----13--13--13--13--13--9---|----9---9---9---9---9---9-------|
    --14----14--14--14--14--14--11--|----11--11--11--11--11--11------|
    ------------------------14--12--|----12--12--12--12--12--12------|
    --------------------------------|----------------------------12--|
    
    ----0--0----0--0--0--2--|----2--2----2--2--2--4--|----4--4----4--4--4--4--|
    ----0--0----0--0--0--2--|----2--2----2--2--2-----|----5--5----5--5--5--5--|
    ------------------------|---------------------0--|----6--6----6--6--6--6--|
    -------2----2--2--2--4--|----4--4----4--4--4--6--|----6--6----6--6--6--6--|
    ----7-------------------|------------------------|------------------------|
    ------------------------|---------------------7--|------------------------|
    
    --10---5--5--9--5--5--10------|---9---------10----------9------|
    --------------------------10--|-----10--10------10--10-----10--|
    ------------------------------|--------------------------------|
    ------------------------------|--------------------------------|
    ------------------------------|--------------------------------|
    ------------------------------|--------------------------------|
    
    --10----------9----------10------|-----------------------------|
    ------10--10-----10--10------10--|--9---10----12----10--9--0---|
    ---------------------------------|--9---9-----9-----9---9--5---|
    ---------------------------------|--9---9-----9-----9---9------|
    ---------------------------------|--11--11----11----11--11-----|
    ---------------------------------|-------------------------7---|
    
    --------------------------|--------------------------|
    --------------------------|--------------------------|
    --------------------------|--3--3--3--3--3--3--3--3--|
    --6--6--6--6--6--6--6--6--|--3--3--3--3--3--3--3--3--|
    --6--6--6--6--6--6--6--6--|--1--1--1--1--1--1--1--1--|
    --4--4--4--4--4--4--4--4--|--------------------------|
    
    --------------------------|--------------------------|
    --1--1--1--1--1--1--1--1--|--1--1--1--1--1--1--1--1--|
    --0--0--0--0--0--0--0--0--|--0--0--0--0--0--0--0--0--|
    --------------------------|--------------------------|
    --3--3--3--3--3--3--3--3--|--3--3--3--3--3--3--3--3--|
    --------------------------|--------------------------|
    
    --------------------------|--------------------------|
    --------------------------|--------------------------|
    --1--1--1--1--1--1--1--1--|--3--3--3--3--3--3--3--3--|
    --1--1--1--1--1--1--1--1--|--3--3--3--3--3--3--3--3--|
    --------------------------|--1--1--1--1--1--1--1--1--|
    --4--4--4--4--4--4--4--4--|--------------------------|
    
    --------------------------|-----------------------11--11-|
    --1--1--1--1--1--1--1--1--|--1--1--1--1--1--1--1---------|
    --0--0--0--0--0--0--0--0--|--0--0-----0--0--0--0---------|
    --------------------------|------------------------------|
    --3--3--3--3--3--3--3--3--|--3--3--3--3--3--3--3---------|
    --------------------------|------------------------------|
    
    ---11---------------------------------|---------------------|
    ----------13-11-13----11--------------|---------------------|
    -------12----------------12-10-8----8-|---10----------------|
    ---------------------------------10---|---------------------|
    --------------------------------------|---------------------|
    --------------------------------------|---------------------|
    
    ------------------------------|-----5-----5--6---5---6--|--6-----------6-----6-|
    ------------6--4--4--6-----6--|-----6-----6--8---6---8--|--8-------------8---8-|
    ------10-8--3--0--------0-----|--5----------------------|----------------------|
    --10-----------6--------5-----|-------------------------|----------------------|
    ------------1-----------9-----|-------------------------|----------------------|
    ------------6--6--------------|-------------------------|----------------------|
    
    ---6----6----6----6-6-3--3-6--3-|--6----5---------------------|
    -----8----8-----8---------------|---------7-6-4-1----4-----4--|
    -------------7------------------|---------------3-------------|
    --------------------------------|-----------------------------|
    --------------------------------|-----------------------------|
    --------------------------------|-----------------------------|
    
    -----------------1---------|----4----------------------7-|
    ----4-3--1--3------4-1--4--|--4---6---4--6-----7-----7---|
    --5---5--3--5----2------0--|------10--8--10----11--------|
    ---------------------------|-----------------------------|
    ---------------------------|-----------------------------|
    ---------------------------|-----------------------------|
    
    --6---0---3-1-5---1-3----0--|---3-5-1-3---5----3-5----5--|
    ------6-4-------1--------6--|-----------4----4--------6--|
    --7-------------3-----------|---3---------5------5-------|
    ----------------------------|----------------------------|
    ----------------------------|----------------------------|
    ----------------------------|----------------------------|
    
    --5--3----5----3---3-5-8-----8-|---11---8---11----8----11--|
    --6--4--6----4-------7---------|---------------------------|
    -------------------------------|---------------------------|
    -------------------------------|---------------------------|
    -------------------------------|---------------------------|
    -------------------------------|---------------------------|
    
    --8----11---8---11---8---11--|--13----------------|
    -----------------------------|--------------------|
    -----------------------------|--------------------|
    -----------------------------|--------------------|
    -----------------------------|--------------------|
    -----------------------------|--------------------|
    
    --------------12-10----0-------|--5--0--0--4--0--0--5--0--|
    --------------------10----0----|--------------------------|
    -----------------12------------|--------------------------|
    -----------------12-12---------|--------------------------|
    --------------------11-12-7-8--|--------------------------|
    -----------------------11-6----|--------------------------|
    
    --0--4--0--0--5--0--0--4--|--0--0--5--0--0--5--0--0--|
    --------------------------|--------------------------|
    --------------------------|--------------------------|
    --------------------------|--------------------------|
    --------------------------|--------------------------|
    --------------------------|--------------------------|
    
    --12--12--12--12--12--10--10--9---|----------9----------10----------|
    --10--10--10--10--10--10--10--10--|--10---------10--10------10--10--|
    --11--11--11--11--11--11--11------|------11-------------------------|
    ------------------------------12--|---------------------------------|
    ----------------------------------|---------------------------------|
    ----------------------------------|---------------------------------|
    
    --7--------9--------7-----|-----------------------------|
    -----9--9-----9--9-----9--|--10-----10--------10--------|
    --------------------------|------9------9--9------9--9--|
    --------------------------|-----------------------------|
    --------------------------|-----------------------------|
    --------------------------|-----------------------------|
    
    --------------------------------|----------------------------|
    --10--10--10--10--10--10--9--9--|--10--------9--------10-----|
    ------9---9---9---9---9---9--9--|------9--9-----9--9------9--|
    ------9---9---9---9---9---9--9--|----------------------------|
    ------7---7-------7---7------7--|----------------------------|
    --------------------------------|----------------------------|
    
    ---------------------------|---------------------------|
    --9--------10--------9-----|--------10--------9--------|
    -----9--9------9--9-----9--|--9--9------9--9-----9--9--|
    ---------------------------|---------------------------|
    ---------------------------|---------------------------|
    ---------------------------|---------------------------|
    
    ----------10----9---10----10--|----------9----------10----------|
    --10------10----10--------10--|--10-----------------------------|
    ------11--11----11--------11--|--11--11-----11--11------11--11--|
    ------------------------------|---------------------------------|
    ------------------------------|---------------------------------|
    ------------------------------|---------------------------------|
    
    ---------9--------7--5--4--|--5-----5--------4--------|
    --9------------------7--5--|-----5-----5--5-----5--5--|
    --11--9-----9--9-----------|--------------------------|
    ---------------------------|--------------------------|
    ---------------------------|--------------------------|
    ---------------------------|--------------------------|
    
    --12--12--12--12--12--10--9--10--|----------------------------|
    --10--10--10--10--10--10--9--10--|--------9---------9---------|
    --------------------------9--11--|--------9---------9-----9---|
    --12--12--12--12--12--12-----12--|--------11--------11----11--|
    ---------------------------------|----------------------------|
    ---------------------------------|--9--9------9--9------------|
    
    ------------------------------|-------------------------|
    --9---------------------------|--------7--------7-------|
    --9-----11--11----11--11--11--|--------7--------7-------|
    --11----12--12----12--12--12--|--------7--------7-------|
    --11----12--12----12--12--12--|-------------------------|
    --------10--10----10--10--10--|--7--7-----7--7-------7--|
    
    ------------------------|--------0--------0--------|---------------------------|
    --7----7--7----7--7--7--|--------2--------2--------|---------------------3--3--|
    --7----7--7----7--7--7--|--------1--------1--------|-------2--2------2---2--2--|
    --7----7--7----7--7--7--|--------------------------|--0-------7------3---7--2--|
    --5----5--5----5-----5--|--4--4-----4--4-----4--4--|----------12-----7---------|
    ------------------9-----|--------------------------|-----------------10--------|
    
    -------------------------|----------0----------0--|----0--5--0--0--5--0-----|
    --------0--------0-------|---------------3--2--2--|----2--5--2--2--5--2---0-|
    --------7--------7-------|-----2----2----2--2--2--|----2--6--2--2--6--2---0-|
    --------7--------7-------|--7--0----0----0--0-----|-------7--------7--------|
    --2--2-----------7-------|--5---------------------|-----------------------2-|
    --------8--7--7-------7--|------------------------|-------------------------|
    
    -------------------------|-----------------------4--|----0--0----4--4--4--4--|
    ----0--0-----0--0--0-----|--------------3-----3-----|----5--0----5--5--5--5--|
    ----0--4-----0--5--4--6--|---6--6-6-----1--6--6--0--|------------6--6--6--6--|
    ----------------------4--|---4--4-------4--4-----6--|-------6----6--6--6--6--|
    ----2--------2--------7--|---7-------------7--4-----|----6-------------------|
    -------3--------7--3-----|-----------------------7--|----7--7----------------|
    
    --10---5--5--9--5--5--10------|---9---------10----------9------|
    --------------------------10--|-----10--10------10--10-----10--|
    ------------------------------|--------------------------------|
    ------------------------------|--------------------------------|
    ------------------------------|--------------------------------|
    ------------------------------|--------------------------------|
    
    --10----------9----------10-----|--12----12--12--12--12------0---|
    ------10--10-----10--10-----10--|--12----12--12--12--12--12------|
    --------------------------------|--13----13--13--13--13--13------|
    --------------------------------|--14----14--14--14--14--14--11--|
    --------------------------------|------------------------14--12--|
    --------------------------------|--------------------------------|
    
    ----0---0---0---0---0---0------|----0--0----0--0--0--2--|
    --------10----------10-------0-|----0--0----0--0--0--2--|
    -----------------------------0-|------------------------|
    ----11--11--11--11--11--11-----|----2--2----2--2--2--4--|
    ----12--12--12--12--12--12-----|------------------------|
    -----------------------------7-|------------------------|
    
    ----2--2----2--2--2--4--|----0--0----4--4--4--4--|
    ----2--2----2--2--2-----|----5--0----5--5--5--5--|
    ---------------------0--|------------6--6--6--6--|
    ----4--4----4--4--4--6--|-------6----6--6--6--6--|
    ------------------------|----6-------------------|
    ---------------------7--|----7--7----------------|
    
    --10---5--5--9--5--5--10------|---9---------10----------9------|
    --------------------------10--|-----10--10------10--10-----10--|
    ------------------------------|--------------------------------|
    ------------------------------|--------------------------------|
    ------------------------------|--------------------------------|
    ------------------------------|--------------------------------|
    
    --10----------9----------10-----|--12----12--12--12--12--0---0---|
    ------10--10-----10--10-----10--|--12----12--12--12--12--15--10--|
    --------------------------------|--13----13--13--13--13--16------|
    --------------------------------|--14----14--14--14--14--18--11--|
    --------------------------------|----------------------------12--|
    --------------------------------|--------------------------------|
    
    ----0---0---0---0---0---0---0--|----0--0----0--0--0--2--|
    --------10----------10------0--|----0--0----0--0--0--2--|
    -------------------------------|------------------------|
    ----11--11--11--11--11--11-----|----2--2----2--2--2--4--|
    ----12--12--12--12--12--12--7--|------------------------|
    -------------------------------|------------------------|
    
    ----2--12--12--12--12--12------|------------------------------|
    ----2--10--10--10--10--10--9---|----9---9-----9---9---9---9---|
    -------11--11--11--11--11--9---|----9---9-----9---9---9---9---|
    ----4--11--11--11--11--11--11--|----11--11----11--11--11--11--|
    ---------------------------11--|----11--11----11--11--11--11--|
    -------------------------------|------------------------------|
    
    --10-----------9----------10------|---9---------10----------9------|
    -------10--10-----10--10------10--|-----10--10------10--10-----10--|
    ----------------------------------|--------------------------------|
    ----------------------------------|--------------------------------|
    ----------------------------------|--------------------------------|
    ----------------------------------|--------------------------------|
    
    --10----------9----------10-----|--12----12--12--12--12------12--|
    ------10--10-----10--10-----10--|--12----12--12--12--12--12------|
    --------------------------------|--13----13--13--13--13--13--9---|
    --------------------------------|--14----14--14--14--14--14--11--|
    --------------------------------|------------------------14--12--|
    --------------------------------|--------------------------------|
    
    ----12--12--12--12--12--12--0---|----0--0----0--0--0--2--|
    --------10----------10------0---|----0--0----0--0--0--2--|
    ----9---9---9---9---9---9-------|------------------------|
    ----11--11--11--11--11--11------|-------2----2--2--2--4--|
    ----12--12--12--12--12--12------|----7-------------------|
    ----------------------------12--|------------------------|
    
    ----2--2----2--2--2--4--|----4--4----4--4--4--4--|
    ----2--2----2--2--2-----|----5--5----5--5--5--5--|
    ---------------------0--|----6--6----6--6--6--6--|
    ----4--4----4--4--4--6--|----6--6----6--6--6--6--|
    ------------------------|------------------------|
    ---------------------7--|------------------------|
    
    --10---5--5--9--5--5--10------|---9---------10----------9------|
    --------------------------10--|-----10--10------10--10-----10--|
    ------------------------------|--------------------------------|
    ------------------------------|--------------------------------|
    ------------------------------|--------------------------------|
    ------------------------------|--------------------------------|
    
    --10----------9----------10------|-----------------------------|
    ------10--10-----10--10------10--|--9---10----12----10--9--0---|
    ---------------------------------|--9---9-----9-----9---9--5---|
    ---------------------------------|--9---9-----9-----9---9------|
    ---------------------------------|--11--11----11----11--11-----|
    ---------------------------------|-------------------------7---|
    
    --------------------------|--------------------------|
    --------------------------|--------------------------|
    --------------------------|--3--3--3--3--3--3--3--3--|
    --6--6--6--6--6--6--6--6--|--3--3--3--3--3--3--3--3--|
    --6--6--6--6--6--6--6--6--|--1--1--1--1--1--1--1--1--|
    --4--4--4--4--4--4--4--4--|--------------------------|
    
    --------------------------|--------------------------|
    --1--1--1--1--1--1--1--1--|--1--1--1--1--1--1--1--1--|
    --0--0--0--0--0--0--0--0--|--0--0--0--0--0--0--0--0--|
    --------------------------|--------------------------|
    --3--3--3--3--3--3--3--3--|--3--3--3--3--3--3--3--3--|
    --------------------------|--------------------------|
    
    --------------------------|--------------------------|
    --------------------------|--------------------------|
    --1--1--1--1--1--1--1--1--|--3--3--3--3--3--3--3--3--|
    --1--1--1--1--1--1--1--1--|--3--3--3--3--3--3--3--3--|
    --------------------------|--1--1--1--1--1--1--1--1--|
    --4--4--4--4--4--4--4--4--|--------------------------|
    
    --------------------------|--------------------------|
    --1--1--1--1--1--1--1--1--|--1--1--1--1--1--1--1-----|
    --0--0--0--0--0--0--0--0--|--0--0-----0--0--0--0--0--|
    --------------------------|-----------------------1--|
    --3--3--3--3--3--3--3--3--|--3--3--3--3--3--3--3--3--|
    --------------------------|--------------------------|
    
    --4--4--4--4--4--4--4--4--|--6--6--6--6--6--6--6--6--|
    --4--4--4--4--4--4--4--4--|--6--6--6--6--6--6--6--6--|
    --------------------------|--7--7--7--7--7--7--7--7--|
    --6--6--6--6--6--6--6--6--|--8--8--8--8--8--8--8--8--|
    --6--6--6--6--6--6--6--6--|--8--8--8--8--8--8--8--8--|
    --4--4--4--4--4--4--4--4--|--6--6--6--6--6--6--6--6--|
    
    --4--4--4--4--4--4--4--4--|--6--6--6--6--6--6--6--4--|----4--4--6----6--6--7--|
    --4--4--4--4--4--4--4--4--|--6--6--6--6--6--6--6--4--|----4--4-------------7--|
    --------------------------|--7--7--7--7--7--7--7--5--|----5--5--7----7--7--8--|
    --6--6--6--6--6--6--6--6--|--8--8--8--8--8--8--8--6--|----6--6--8----8--8--9--|
    --6--6--6--6--6--6--6--6--|--8--8--8--8--8--8--8--6--|----6--6--8----8--8--9--|
    --4--4--4--4--4--4--4--4--|--6--6--6--6--6--6--6--4--|----4--4--6----6--6--7--|
    
    ----7--7--9-----9---9---9---|--11--11--11--11--11--11--11--11--|
    ----7--7--9-----9---9---9---|----------------------------------|
    ----8--8--10----10--10--10--|--12--12--12--12--12--12--12--12--|
    ----9--9--11----11--11--11--|--13--13--13--13--13--13--13--13--|
    ----9--9--11----11--11--11--|--13--13--13--13--13--13--13--13--|
    ----7--7--9-----9---9---9---|--11--11--11--11--11--11--11--11--|
    
    -----------------------------11---|--------------------|------------------|
    ----------------------------------|--------------------|------------------|
    ------12-12-12-12-12-12-13--------|------12------------|------------------|
    ------13-13-13-13-13-13-13--------|------13------------|------------------|
    ----------------------------------|--------------------|------------------|
    ----------------------------------|--------------------|------------------|
    
    ------------------||
    ------------------||
    ------------------||
    ------------------||
    ------------------||
    ------------------||
     

    Тональность:

    Нет текста!



    Назад
    Рекомендуем посмотреть другие песни исполнителя «Larc En Ciel»:

    • Комментарии Facebook ()
    • Комментарии ВКонтакте



    Добавить в Избранное Браузера
    Сохранить здесь Очистить


    x

    0


    +
    -

    +
    -

    -

    Авторизация





    Зарегистрироваться

    M

    Дата и время

    • 20:34:00
       

    Социальные ссылки


    Наши приложения

    • Muzbank App Play Market
    • Muzbank Amazon App