MUZBANK



A Most Complete Bank Of Music Information

МУЗЫКАЛЬНО-ИНФОРМАЦИОННЫЙ БАНК

Поиск по сайту







    LLarc En Ciel • Kasou Part I (аккорды и текст - chords & lyrics)


    216

    Print

    Видео «Kasou Part I (Larc En Ciel)»

    Видео клипы к песне подбираются автоматически сайтом youtube. Возможны некоторые несоответствия клипов песне.

    ↑ Спрятать рекламу ↑



    Download


     
    
    
    L`Arc en Ciel
     Kasou (part I)
    
     Tab by Mari no koibito
    
     
     Intro 
    
     Guitar 1
    e|-----------------------|-----------------------------|--------------------------|
    B|-----------------------|-----------------------------|--------------------------|
    G|-----------------------|-----------------------------|--------------------------|
    A|-----------------------|-----------------------------|--------------------------|
    D|-----------------------|-----------------------------|--------------------------|
    E|-----------------------|-----------------------------|--------------------------|
     Guitar 2
    e|--7--7-x--10-10--x-----|-----------------------------|--7--7-x--10--x-10--x--0--|
    B|--0--0-x---7--7--x--8--|--8--8--8-8--10--8--10--x-x--|--0--0-x---7--x--7--x--0--|
    G|--0--0-x---0--0--x--9--|--9--9--9-9--11--9--11--x-x--|--0--0-x---7--x--7--x--9--|
    A|-----------------------|-----------------------------|----------------------10--|
    D|--7--7-x---------------|-----------------------------|--7--7-x------------------|
    E|-----------------------|-----------------------------|--------------------------|
    
     Guitar 1
    e|-----------------------|-----------------------|-----------------------------|
    B|-----------------------|-----------------------|-----------------------------|
    G|-----------------------|-----------------------|-----------------------------|
    A|-----------------------|-----------------------|-----------------------------|
    D|-----------------------|-----------------------|-----------------------------|
    E|-----------------------|-----------------------|-----------------------------|
     Guitar 2
    e|--x--------------------|--7--7-x--10-10--x-----|-----------------------------|
    B|--x---10----10---x--x--|--0--0-x---7--7--x--8--|--8--8--8-8--10--8--10--x-x--|
    G|--x----9-----9---x--x--|--0--0-x---0--0--x--9--|--9--9--9-9--11--9--11--x-x--|
    A|--x---12----12---x--x--|-----------------------|-----------------------------|
    D|-----------------------|--7--7-x---------------|-----------------------------|
    E|-----------------------|-----------------------|-----------------------------|
    
     Guitar 1
    e|-------------------------|
    B|-------------------------|
    G|-------------------------|
    A|-------------------------|
    D|-------------------------|
    E|-------------------------|
     Guitar 2
    e|--7--7-x-10--x-10--x--0--|
    B|--0--0-x--7--x--7--x--0--|
    G|--0--0-x--7--x--7--x--9--|
    A|---------------------10--|
    D|--7--7-x-----------------|
    E|-------------------------|
    
    
     Verse A
    
     Guitar 1
    e|------------------------|----------------------|--0--0--0--0--0--|--0--0--1--1--1--|
    B|------------------------|----------------------|--0--0--0--0--0--|--2--2--3--3--3--|
    G|------------------------|----------------------|--0--0--0--0--0--|--0--0--2--2--2--|
    A|------------------------|----------------------|-----------------|-----------------|
    D|------------------------|----------------------|-----------------|-----------------|
    E|------------------------|----------------------|-----------------|-----------------|
     Guitar 2
    e|------------------------|----------------------|-----0-----------|-----------------|
    B|------------------------|----------------------|---------0-------|-----------------|
    G|-----------0------------|-------------0--------|-----------------|-----------------|
    A|--------4------4--0-----|--2-------------4-----|-----------------|-----------------|
    D|-----2---------------3--|-----3--3s5--------5--|-----------------|-----------------|
    E|--0---------------------|----------------------|--0--------------|-----------------|
        barabara ni chirabaru...                      ...shizuku... 
     Guitar 1
    e|------------------------|----------------------|--0--0--0--0--0--|--0--0--1--1--1--12-12-14--|
    B|------------------------|----------------------|--0--0--0--0--0--|--2--2--3--3--3------------|
    G|------------------------|----------------------|--0--0--0--0--0--|--0--0--2--2--2------------|
    A|------------------------|----------------------|-----------------|---------------------------|
    D|------------------------|----------------------|-----------------|---------------------------|
    E|------------------------|----------------------|-----------------|---------------------------|
     Guitar 2
    e|------------------------|----------------------|-----0-----------|--------------2------------|
    B|------------------------|----------------------|---------0-------|--------------3------------|
    G|-----------0------------|-------------0--------|-----------------|--------------2------------|
    A|--------4------4--0-----|--2-------------4-----|-----------------|--------------0------------|
    D|-----2---------------3--|-----3--3s5--------5--|-----------------|---------------------------|
    E|--0---------------------|----------------------|--0--------------|---------------------------|
        kaketa tsuki yo maware...                     ...koi wo...
     
    
     Verse B
    
     Guitar 1
    e|--15--12-14--12--15--|--12--14--12-12-14--|--15--12-14--12--5/19--|--19--12--12-12-14--|
    B|---------------------|--------------------|-----------------------|--------------------|
    G|---------------------|--------------------|-----------------------|--------------------|
    A|---------------------|--------------------|-----------------------|--------------------|
    D|---------------------|--------------------|-----------------------|--------------------|
    E|---------------------|--------------------|-----------------------|--------------------|
     Guitar 2
    e|--0------------------|--0-0--2--2--0------|--2--------------------|-------2---2--2--2--|
    B|--1------------------|--1-1--1--1--1------|--0--------------------|-------0---0--0--0--|
    G|--0------------------|--0-0--0--0--0------|--2--------------------|-------2---2--2--2--|
    A|--2------------------|--2-2--2--2--2------|--0--------------------|-------0---0--0--0--|
    D|--0------------------|--0-0--0--0--0------|--2--------------------|-------2---2--2--2--|
    E|--x------------------|--------------------|--x--------------------|-------x---x--x--x--|
    
     Guitar 1
    e|--15--12-14--12--15--|--12--14--12--15--|--15s19--19---s14--|--14s17--17s12-12s14-14s15--|
    B|---------------------|------------------|-------------------|----------------------------|
    G|---------------------|------------------|-------------------|----------------------------|
    A|---------------------|------------------|-------------------|----------------------------|
    D|---------------------|------------------|-------------------|----------------------------|
    E|---------------------|------------------|-------------------|----------------------------|
     Guitar 2
    e|--0------------------|-----------0--0---|--2--2--2--2-2-2--2--2--2-2--|------------------|
    B|--0------------------|-----------0--0---|--3--3--3--3-3-3--3--3--3-3--|------------------|
    G|--0------------------|-----------0--0---|--2--2--2--2-2-2--2--2--2-2--|--------*/--------|
    A|--2------------------|-----------2--2---|--0--0--0--0-0-0--0--0--0-0--|--------/*--------|
    D|--3------------------|-----------3--3---|--x--x--x--x-x-x--x--x--x-x--|------------------|
    E|--x------------------|-----------x--x---|--x--x--x--x-x-x--x--x--x-x--|------------------|
                                                                                 hitomi... 
    
    
     Verse C
    
     Guitar 1
    e|--15------------------|--(15)----------------|----------------------|----------------------|
    B|----------------------|----------------------|----------------------|----------------------|
    G|----------------------|----------------------|----------------------|----------------------|
    A|----------------------|----------------------|----------------------|----------------------|
    D|----------------------|----------------------|----------------------|----------------------|
    E|----------------------|----------------------|----------------------|----------------------|
     Guitar 2
    e|----------------------|----------------------|----------------------|----------------------|
    B|----------3-----------|----------3-----------|----------3-----------|----------3-----------|
    G|-------0-----0-----0--|-------0-----0-----0--|-------0-----0-----0--|-------0-----0-----0--|
    A|-----4----------4-----|-----4----------4-----|-----4----------4-----|-----4----------4-----|
    D|--3-------------------|--3-------------------|--5-------------------|--5-------------------|
    E|----------------------|----------------------|----------------------|----------------------|
                            ...aketa...                                              ...fushoku...  
     Guitar 1
    e|----------------------|----------------------|----------------------|----------------|
    B|----------------------|----------------------|----------------------|----------------|
    G|----------------------|----------------------|----------------------|----------------|
    A|----------------------|----------------------|----------------------|----------------|
    D|----------------------|----------------------|----------------------|----------------|
    E|----------------------|----------------------|----------------------|----------------|
     Guitar 2
    e|----------------------|----------------------|-------------------2--|--2--2-0--2--2--|
    B|----------3-----------|----------3-----------|----------3--------3--|--3--3-3--3--3--|
    G|-------0-----0-----0--|-------0-----0-----0--|-------0-----0-----2--|--2--2-2--2--2--|
    A|-----4----------4-----|-----4----------4-----|-----4----------4--0--|--0--0-0--0--0--|
    D|--3-------------------|--3-------------------|--5-------------------|----------------|
    E|----------------------|----------------------|----------------------|----------------|
               ...shiteyuku...                                                    ...azayaka...  
     Guitar 1
    e|----------------------|----------------------|----------------------|----------------------|
    B|----------------------|----------------------|----------------------|----------------------|
    G|----------------------|----------------------|----------------------|----------------------|
    A|----------------------|----------------------|----------------------|----------------------|
    D|----------------------|----------------------|----------------------|----------------------|
    E|----------------------|----------------------|----------------------|----------------------|
     Guitar 2
    e|----------------------|----------------------|----------------------|--------3--2--2--x-x--|
    B|----------3-----------|----------3-----------|-------------------3--|--3--3--3--3--3--x-x--|
    G|-------0-----0-----0--|-------0-----0-----0--|----------0--------0--|--0--0----------------|
    A|-----4----------4-----|-----4----------4-----|-------4-----4--------|----------------------|
    D|--3-------------------|--3-------------------|--2--2----------2-----|----------------------|
    E|----------------------|----------------------|----------------------|----------------------|
               ...ushinawareru...                                         ...nokoshite...  
     Guitar 1
    e|-------------------------|------------------|--------------------------|----------------|
    B|-------------------------|------------------|--------------------------|----------------|
    G|-------------------------|------------------|--------------------------|----------------|
    A|-------------------------|------------------|--------------------------|----------------|
    D|-------------------------|------------------|--------------------------|----------------|
    E|-------------------------|------------------|--------------------------|----------------|
     Guitar 2
    e|-------------0-----------|---------------0--|--------------------------|--2--2-0--2--2--|
    B|----------1-----1-----1--|-----1--1------1--|-----3--------3-----------|--3--3-3--3--3--|
    G|--------0----------0-----|--0--------0---0--|--------0--------0--------|--2--2-2--2--2--|
    A|------2------------------|------------------|-----------4--------4-----|--0--0-0--0--0--|
    D|---0---------------------|------------------|--5--------------------5--|----------------|
    E|-------------------------|------------------|--------------------------|----------------|
              ...haru wo...                      ...zu ni...                        ...itoshii... 
    
    
     Verse C
    
     Guitar 1
    e|----------------------|----------------------|----------------------|--------------------------------|
    B|--------13--12--13===-|---10/13===---13===---|----------------------|-13h15p13-12h13p12--------------|
    G|--9/12--12--12--12===-|---10/12===---12===---|---14h16--14--14h16---|-------------------14-14h16p12--|
    A|----------------------|----------------------|----------------------|--------------------------------|
    D|----------------------|----------------------|----------------------|--------------------------------|
    E|----------------------|----------------------|----------------------|--------------------------------|
     Guitar 2
    e|----------------------|----------------------|----------------------|----------------------|
    B|----------3-----------|----------3-----------|----------3-----------|----------3-----------|
    G|-------0-----0-----0--|-------0-----0-----0--|-------0-----0-----0--|-------0-----0-----0--|
    A|-----4----------4-----|-----4----------4-----|-----4----------4-----|-----4----------4-----|
    D|--3-------------------|--3-------------------|--5-------------------|--5-------------------|
    E|----------------------|----------------------|----------------------|----------------------|
                          ...anata...                                                 ...sotto...
     Guitar 1
    e|----------------------|-----------------14---|--14=====----12-------|------------------------|
    B|--------13--12--13===-|--10/13===-13===------|------------------15--|--13-12-12h13-12----12--|
    G|--9/12--12--12--12===-|--10/12===-12===------|----------------------|-----------------14-----|
    A|----------------------|----------------------|----------------------|------------------------|
    D|----------------------|----------------------|----------------------|------------------------|
    E|----------------------|----------------------|----------------------|------------------------|
     Guitar 2
    e|----------------------|----------------------|-------------------2--|--2--2-0--2--2--|
    B|----------3-----------|----------3-----------|----------3--------3--|--3--3-3--3--3--|
    G|-------0-----0-----0--|-------0-----0-----0--|-------0-----0-----2--|--2--2-2--2--2--|
    A|-----4----------4-----|-----4----------4-----|-----4----------4--0--|--0--0-0--0--0--|
    D|--3-------------------|--3-------------------|--5-------------------|----------------|
    E|----------------------|----------------------|----------------------|----------------|
                ...tsumetaku...                                                   ...ude no...
     Guitar 1
    e|----------------------|----------------------|-------------------------|----------------------|
    B|---12==13==12==13===--|-=13==12==13==12==13--|-11h12=11=11h12-15-13-12-|-----12---------------|
    G|---12==12==12==12===--|-=12==12==12==12==12--|-11====11=11===----------|--14----14-11h12-11---|
    A|----------------------|----------------------|-------------------------|----------------------|
    D|----------------------|----------------------|-------------------------|----------------------|
    E|----------------------|----------------------|-------------------------|----------------------|
     Guitar 2
    e|----------------------|----------------------|-------------------------|--------3--2--2--x-x--|
    B|----------3-----------|----------3-----------|----------------------3--|--3--3--3--3--3--x-x--|
    G|-------0-----0-----0--|-------0-----0-----0--|------------0---------0--|--0--0----------------|
    A|-----4----------4-----|-----4----------4-----|---------4-----4---------|----------------------|
    D|--3-------------------|--3-------------------|--2---2-----------2------|----------------------|
    E|----------------------|----------------------|-------------------------|----------------------|
                ...kowarenagara...                                      ...yonderu...     
     Guitar 1 
    e|--------------14==15===--|------------------|--------------------------|-----------------------|
    B|--15h17==17===-----------|------------------|--------------------------|-----------------------|
    G|-------------------------|------------------|--------------------------|-----------------------|
    A|-------------------------|------------------|--------------------------|-----------------------|
    D|-------------------------|------------------|--------------------------|-----------------------|
    E|-------------------------|------------------|--------------------------|-----------------------|
     Guitar 2
    e|-------------0-----------|---------------0--|--------------------------|--8--8---10---7--7--7--|
    B|----------1-----1-----1--|-----1--1------1--|-----3--------3-----------|--7--7----7---7--7--7--|
    G|--------0----------0-----|--0--------0---0--|--------0--------0--------|--8--8----8---8--8--8--|
    A|------2------------------|------------------|-----------4--------4-----|-----------------------|
    D|---0---------------------|------------------|--5--------------------5--|-----------------------|
    E|-------------------------|------------------|--------------------------|-----------------------|
                ...itsumo...                                                        ...ah! ha...  
    
    
     Chorus
    
     Guitar 1
    e|------------------------|----------------------|--0--0--0--0--0--|--0--0--1--1--1--|
    B|------------------------|----------------------|--0--0--0--0--0--|--2--2--3--3--3--|
    G|------------------------|----------------------|--0--0--0--0--0--|--0--0--2--2--2--|
    A|------------------------|----------------------|-----------------|-----------------|
    D|------------------------|----------------------|-----------------|-----------------|
    E|------------------------|----------------------|-----------------|-----------------|
     Guitar 2
    e|------------------------|----------------------|-----0-----------|-----------------|
    B|------------------------|----------------------|---------0-------|-----------------|
    G|-----------0------------|-------------0--------|-----------------|-----------------|
    A|--------4------4--0-----|--2-------------4-----|-----------------|-----------------|
    D|-----2---------------3--|-----3--3s5--------5--|-----------------|-----------------|
    E|--0---------------------|----------------------|--0--------------|-----------------|
        ...kurui...                                    ...tamashii...
     Guitar 1
    e|------------------------|----------------------|--0--0--0--0--0--|--0--0--1--1--1--|
    B|------------------------|----------------------|--0--0--0--0--0--|--2--2--3--3--3--|
    G|------------------------|----------------------|--0--0--0--0--0--|--0--0--2--2--2--|
    A|------------------------|----------------------|-----------------|-----------------|
    D|------------------------|----------------------|-----------------|-----------------|
    E|------------------------|----------------------|-----------------|-----------------|
     Guitar 2
    e|------------------------|----------------------|-----0-----------|--------------2--|
    B|------------------------|----------------------|---------0-------|--------------3--|
    G|-----------0------------|-------------0--------|-----------------|--------------2--|
    A|--------4------4--0-----|--2-------------4-----|-----------------|--------------0--|
    D|-----2---------------3--|-----3--3s5--------5--|-----------------|-----------------|
    E|--0---------------------|----------------------|--0--------------|-----------------|
        ...yami ni...                                  ...no hana...
    
    
     Verse D
    
     Guitar 1
    e|--12--12--14--15--12-14--12--15--|--12--14--12-12-14--|--15--12-14--12--5/19--|--19--12--12-12-14--|
    B|---------------------------------|--------------------|-----------------------|--------------------|
    G|---------------------------------|--------------------|-----------------------|--------------------|
    A|---------------------------------|--------------------|-----------------------|--------------------|
    D|---------------------------------|--------------------|-----------------------|--------------------|
    E|---------------------------------|--------------------|-----------------------|--------------------|
     Guitar 2
    e|--0------------------------------|--0-0--2--2--0------|--2--------------------|-------2---2--2--2--|
    B|--1------------------------------|--1-1--1--1--1------|--0--------------------|-------0---0--0--0--|
    G|--0------------------------------|--0-0--0--0--0------|--2--------------------|-------2---2--2--2--|
    A|--2------------------------------|--2-2--2--2--2------|--0--------------------|-------0---0--0--0--|
    D|--0------------------------------|--0-0--0--0--0------|--2--------------------|-------2---2--2--2--|
    E|--x------------------------------|--------------------|--x--------------------|-------x---x--x--x--|
              ...gravity...                                              ...there is...
     Guitar 1
    e|--15--12-14--12--15--|--12--14--12--15--|---15s19--19/----s20~~~------|
    B|---------------------|------------------|-----------------------------|
    G|---------------------|------------------|-----------------------------|
    A|---------------------|------------------|-----------------------------|
    D|---------------------|------------------|-----------------------------|
    E|---------------------|------------------|-----------------------------|
     Guitar 2
    e|--0------------------|-----------0--0---|--2--2--2--2-2-2--2--2--2-2--|
    B|--0------------------|-----------0--0---|--3--3--3--3-3-3--3--3--3-3--|
    G|--0------------------|-----------0--0---|--2--2--2--2-2-2--2--2--2-2--|
    A|--2------------------|-----------2--2---|--0--0--0--0-0-0--0--0--0-0--|   Continue...
    D|--3------------------|-----------3--3---|--x--x--x--x-x-x--x--x--x-x--|
    E|--x------------------|-----------x--x---|--x--x--x--x-x-x--x--x--x-x--|
      ...my body...                              ...we never...
     

    Тональность:

    Нет текста!



    Назад
    Рекомендуем посмотреть другие песни исполнителя «Larc En Ciel»:

    • Комментарии Facebook ()
    • Комментарии ВКонтакте



    Добавить в Избранное Браузера
    Сохранить здесь Очистить


    x

    0


    +
    -

    +
    -

    -

    Авторизация





    Зарегистрироваться

    M

    Дата и время

    • 03:29:23
       

    Социальные ссылки


    Наши приложения

    • Muzbank App Play Market
    • Muzbank Amazon App