MUZBANK



A Most Complete Bank Of Music Information

МУЗЫКАЛЬНО-ИНФОРМАЦИОННЫЙ БАНК

Поиск по сайту







    LLars Frederiksen And The Bastards • To Have And To (аккорды и текст - chords & lyrics)


    280

    Print

    Видео «To Have And To (Lars Frederiksen And The Bastards)»

    Видео клипы к песне подбираются автоматически сайтом youtube. Возможны некоторые несоответствия клипов песне.

    ↑ Спрятать рекламу ↑



    Download



     
    
    
    Lars Frederiksen And The Bastards - To Have And To Have Not
    
    Guitar Tabs
    
    
    Intro 1 (guitar 1)
    
    e-----------------------------
    B-0-1-3-3-3-3-3-1-0-----------
    G-0-0-0-0-0-0-0-0-0-let-ring--
    D-----------------------------
    A-----------------------------
    E-----------------------------
    
    
    Intro 2/main riff (guitar 1)
    
    e-----------------------------
    B-0-1-3-3-3-3-3-3-3-5-5-5-5-3-
    G-0-0-0-0-0-0-0-0-0-0-0-0-0-0-
    D-----------------------------
    A-----------------------------
    E-----------------------------
    
    
     conuintued (guitar 1)
    
    e-----------------------------
    B-0-1-3-3-3-3-3-3-3-1-0-------
    G-0-0-0-0-0-0-0-0-0-0-0-------  x2
    D-----------------------------
    A-----------------------------
    E-----------------------------
    
    
    intro 2 (guitar 2)
                        
    e---------------------------------------
    B---------------------------------------
    G---------5-5--------------7-7----------
    D-5-5-5-5-5-5-5-5--2-2-2-2-5-5-5-5------
    A-5-5-5-5-3-3-5-5--2-2-2-2-5-5-5-5------
    E-3-3-3-3-----3-3--0-0-0-0-----3-3------ 
    
    This song is awsome and really easy to play.
    Hope ya like the tab.
    
    The main riff is the same as the intro for guitar 2
    But palm muted in some parts. Just listen to the song 
    for the strumming patterns and palm muted parts.
     

    Тональность:

    Нет текста!



    Назад
    Рекомендуем посмотреть другие песни исполнителя «Lars Frederiksen And The Bastards»:

    • Комментарии Facebook ()
    • Комментарии ВКонтакте



    Добавить в Избранное Браузера
    Сохранить здесь Очистить


    x

    0


    +
    -

    +
    -

    -

    Авторизация





    Зарегистрироваться

    M

    Дата и время

    • 13:46:12
       

    Социальные ссылки


    Наши приложения

    • Muzbank App Play Market
    • Muzbank Amazon App