MUZBANK



A Most Complete Bank Of Music Information

МУЗЫКАЛЬНО-ИНФОРМАЦИОННЫЙ БАНК

Поиск по сайту







    LLavigne Avril • Sk8a Boi (аккорды и текст - chords & lyrics)


    239

    Print

    Видео «Sk8a Boi (Lavigne Avril)»

    Видео клипы к песне подбираются автоматически сайтом youtube. Возможны некоторые несоответствия клипов песне.

    ↑ Спрятать рекламу ↑



    Download


     
    
    
    avril lavigne
    sk8a boi
    tabbed by Chuck wise
    
    INTRO
    GUITAR1 plays D5 A5 B5 Bb5
                  ------------|
                  ------------|
                  -7----------|
                  -7--7--9--8-|
                  -5--7--9--8-|
                  ----5--7--6-|
    GUITAR2
    ---------------------------------------|
    -----7--5----7--5----7--5----7--5------|
    -----------------------------------7---|
    ---------------------------------------|
    ---------------------------------------|
    ---------------------------------------|
    VERSE
          D5 A5 B5 Bb5        in the second verse the second guitar
          --------------------------------------------------------|         plays same as intro but a bit different
          ------------         e----------------------------------|
          -7---------- X4      B---5-7-5--5-7-5--5-7-5--5-7-5-----|
          -7--7--9--8-         G-------------------------------7--|
          -5--7--9--8-         D----------------------------------|
          ----5--7--6-         A----------------------------------|
    CHORUS                     E----------------------------------|
     F5 C5 Bb5 A
    ---------------|
    ---------------|
    -----5--3--2---|
    -3---5--3--2---|
    -3---3--1------|
    -1-------------|
    
    SOLO THING
    --------------------------------------|
    --10--8---10--8---10--8---------------|
    -----------------------------6-6-6-6--|
    -----------------------------6-6-6-6--| X2
    -----------------------------4-4-4-4--|
    --------------------------------------|
    
    BRIDGE
      D5     F5     C5     Bb5    A5
    ---------------------------------------|
    ---------------------------------------|
    ---7-----------------------------------|X2
    ---7-X8---3-----10------8------7-------|
    ---5------3-X8--10--X8--8--X4--7--X4---|
    ----------1------8------6------5-------|
    
    EASY
    ENJOY
    
    yourmother goes hard
     

    Тональность:

    Нет текста!



    Назад
    Рекомендуем посмотреть другие песни исполнителя «Lavigne Avril»:

    • Комментарии Facebook ()
    • Комментарии ВКонтакте



    Добавить в Избранное Браузера
    Сохранить здесь Очистить


    x

    0


    +
    -

    +
    -

    -

    Авторизация





    Зарегистрироваться

    M

    Дата и время

    • 17:30:59
       

    Социальные ссылки


    Наши приложения

    • Muzbank App Play Market
    • Muzbank Amazon App