MUZBANK



A MOST COMPLETE BANK OF MUSIC INFORMATION

МУЗЫКАЛЬНО-ИНФОРМАЦИОННЫЙ БАНК







    LLed Zeppelin • Custard Pie (аккорды и текст - chords & lyrics)


    256

    Print

    Видео «Custard Pie (Led Zeppelin)»

    Видео клипы к песне подбираются автоматически сайтом youtube. Возможны некоторые несоответствия клипов песне.

    ↑ Спрятать рекламу ↑






     
    
    
    Date: Fri, 13 Dec 1996 00:24:19 -0500
     
     From: Smiley2545@aol.com
     
     Subject: BTAB: Custard pie by Led Zeppelin
     
     
     
     Custard Pie by Led Zeppelin
     
     transcribed by Adam Sorini      
     
     
     
     part 1. intro
     
     
     
           h
     
     G----------|
     
     D|--------2---757---|
     
     A|--3^4----4-------|----rest-----|
     
     E-----------|
     
     
     
     
     
     part 2. main riff
     
     
     
     G---------------------|      
     
     D757-----2---757-|
     
     A---------|-------3^4---4-------|
     
     E|--5--5--5---------|-5--5-----------------|
     
     
     
     part 3. post main riff I
     
     
     
     G--------------|
     
     D--------------|
     
     A|--5-----------|----5-4-3--3-2-1-|
     
     E--------------|
     
     
     
     part 4. post main riff II
     
     
     
     G---------|
     
     D---|--5--------------|
     
     A|--7-----------------|
     
     E---1---3-|
     
     
     
     
     
     Song structure: part: 1,1,2,2,3,2,2,2,2,4,2,2,2,2,3,2,2,2,2,4,...etc
     
     
     
     
     
     ost main riff II
     
     G---------|
     D---|--5--------------|
     A|--7-----------------|
     E---1---3-|
     
     
     Song structure: part: 1,1,2,2,3,2,2,2,2,4,2,2,2,2,3,2,2,2,2,4,...etc
     

    Тональность:

    Это должно быть в ТОП-листе! - Топ-лист композиций



    Назад
    Рекомендуем посмотреть другие песни исполнителя «Led Zeppelin»:

    • Комменты Fb ()
    • Комменты ВК



    Добавить в Избранное Браузера
    Сохранить здесь Очистить


    x

    0


    +
    -

    +
    -

    -

    Авторизация





    Зарегистрироваться

    M

    Дата и время

    • 21:26:08
       

    Социальные ссылки


    Наши приложения

    • Muzbank App Play Market
    • Muzbank Amazon App