MUZBANK



A Most Complete Bank Of Music Information

МУЗЫКАЛЬНО-ИНФОРМАЦИОННЫЙ БАНК

Поиск по сайту







    LLed Zeppelin • Dancing Days (аккорды и текст - chords & lyrics)


    297

    Print

    Видео «Dancing Days (Led Zeppelin)»

    Видео клипы к песне подбираются автоматически сайтом youtube. Возможны некоторые несоответствия клипов песне.

    ↑ Спрятать рекламу ↑



    Download



     :Intro    |   *    |  --- Repeat two times---
    E|---------|--------|---------------------------------|
    B|-(2-/3)-2-(/32---0)--------------(2-/3)-2-(/32---0)-|
    G|---------|--------|---------------------------------|
    D|---------|--------|---------------------------------|
    A|----------------------------------------------------|
    E|----------------------------------------------------|
    
    E|----------------------------------------------------|
    B|-(2-/3)--(2/32--0)--(/7--5)------(2-/3)-2-(/32---0)-|
    G|----------------------------------------------------|
    D|---------------------(/7--5)------------------------|
    A|----------------------------------------------------|
    E|----------------------------------------------------|
    
    I found there many veriations on the hammers and pulls.
    :Verse
    E|----------------------------------------------------|
    B|-0--3--5------(5-h6)-(6--5)-------(/9--7)--9-(9--7)-|
    G|-0--3--5-------5------5------------/6------6--6-----|
    D|-0--3--5-------5------5------------/6------6--6-----|
    A|----------------------------------------------------|
    E|----------------------------------------------------|
    
    E|-----------------------------------------------|
    B|-(/6 -5 h6)--(6 h8)---(5 h6)  5----------------|
    G|--/5----------5--------5------5----------------|
    D|--/5----------5--------5------5------5-7-5-7-5-|
    A|-----------------------------------------------|
    E|-----------------------------------------------|
    
    E|---------------------------------------------|
    B|-6-----(5-h6)-(6--5)-------(/9--7)--9-(9 -7)-|
    G|-5------5------5------------/6------6--6-----|
    D|-5------5------5------------/6------6--6-----|
    A|---------------------------------------------|
    E|---------------------------------------------|
    
    E|-----------------------------------------------|
    B|-(/6--5-h6)--(6-h8)---(5-h6)--5----------------|
    G|--/5----------5--------5------5----------------|
    D|--/5----------5--------5------5------5-7-5-7-5-|
    A|-----------------------------------------------|
    E|-----------------------------------------------|
    
    E|-------------------------------------------------|
    B|-(6--5)-----6--(6--5)-------(/5 -3)--6--3---5--3-|
    G|--5---------5---5------------/3------3--3---3--3-|
    D|--5---------5---5------------/3------3--3---3--3-|
    A|-------------------------------------------------|
    E|-------------------------------------------------|
    
    E|--------------------------------------------|
    B|-(3--2)--3--2-(3-h5)--(2-h3)--2-------------|
    G|--2------2--2--2-------2------2-------------|
    D|--2------2--2--2-------2------2-----2-3-2-3-|
    A|--------------------------------------------|
    E|--------------------------------------------|
    
    E|-------------------------------------------------|
    B|-(6--5)-----6--(6--5)-------(/5--3)--6--3---5--3-|
    G|--5---------5---5------------/3------3--3---3--3-|
    D|--5---------5---5------------/3------3--3---3--3-|
    A|-------------------------------------------------|
    E|-------------------------------------------------|
    
    E|-------------------------------------------------------------|
    B|-(3--2)--3--2-(3-h5)--(2-h3) -2------------------------------|
    G|--2------2--2--2-------2------2------------------------------|
    D|--2------2--2--2-------2------2-----2-3-2-3-(or-2-3-2-2-3-2)-|
    A|-------------------------------------------------------------|
    E|-------------------------------------------------------------|
    
    :Solo line over Verse
    E|-------------------8------8---/9--(9/11)--8-|
    B|-------------5--8--8------8---/9--(9/11)--8-|
    G|----------5---------------------------------|
    D|-------5------------------------------------|
    A|-3-/7---------------------------------------|
    E|--------------------------------------------|
    
    E|-------------------8---------------------------------|
    B|-------------5--8--8---------------------------------|
    G|----------5------------------(1715)------(15/17)--14-|
    D|-------5---------------------(1715)------(15/17)--14-|
    A|-3-/7------------------------------------------------|
    E|-----------------------------------------------------|
    
    E|-------------------8---------------------------------|
    B|-------------5--8--8---------------------------------|
    G|----------5------------------(1715)------(15/17)--14-|
    D|-------5---------------------(1715)------(15/17)--14-|
    A|-3-/7------------------------------------------------|
    E|-----------------------------------------------------|
    
    :Solo
    E|----------------------------------------------------------|
    B|----------------------------------------------------------|
    G|-0--3--/5------3--0--3--/5--6-----------6-8-(8 ^ 10)--8-8-|
    D|-0--3--/5------3--0--3--/5--6-----------------------------|
    A|----------------------------------------------------------|
    E|----------------------------------------------------------|
    
    E|-------------------------------------------------------------|
    B|-------------------------------------------------------------|
    G|-(8 ^ 10)--(8 ^ 10)--8-8----(8 ^ 10)--(8 ^ 10)-8-8-6-6-8-6-5-|
    D|-------------------------------------------------------------|
    A|-------------------------------------------------------------|
    E|-------------------------------------------------------------|
    
                              ---or---
    
    E|--------------------------------------------------------|
    B|--------------------------------------------------------|
    G|-0--3--/5------3--0--3--/5--6-------(6/8) /10--/10--8-8-|
    D|-0--3--/5------3--0--3--/5--6-------(6/8) /10--/10--8-8-|
    A|--------------------------------------------------------|
    E|--------------------------------------------------------|
    
    E|----------------------------------------------------------8-|
    B|---------------------------------------------------5---5-8--|
    G|-/10--/10--8-8-------/10--/10--8-8-6-(6/86)-5----5----------|
    D|-/10--/10--8-8-------/10--/10--8-8-6-(6/86)-5---5-----------|
    A|------------------------------------------------------------|
    E|------------------------------------------------------------|
    
    E|-(9/10)--9--(9/107)   ( over and over)-|
    B|---------------------------------------|
    G|---------------------------------------|
    D|---------------------------------------|
    A|---------------------------------------|
    E|---------------------------------------|
    

    Тональность:

    Нет текста!



    Назад
    Рекомендуем посмотреть другие песни исполнителя «Led Zeppelin»:

    • Комментарии Facebook ()
    • Комментарии ВКонтакте



    Добавить в Избранное Браузера
    Сохранить здесь Очистить


    x

    0


    +
    -

    +
    -

    -

    Авторизация





    Зарегистрироваться

    M

    Дата и время

    • 13:12:13
       

    Социальные ссылки


    Наши приложения

    • Muzbank App Play Market
    • Muzbank Amazon App