MUZBANK



A Most Complete Bank Of Music Information

МУЗЫКАЛЬНО-ИНФОРМАЦИОННЫЙ БАНК

Поиск по сайту







    LLed Zeppelin • Friends (btab) (аккорды и текст - chords & lyrics)


    213

    Print

    Видео «Friends (btab) (Led Zeppelin)»

    Видео клипы к песне подбираются автоматически сайтом youtube. Возможны некоторые несоответствия клипов песне.

    ↑ Спрятать рекламу ↑



    Download


     
    
    
    Friends - Led Zeppelin
     
     "double swing" beat
     G|----------------|----------------|----------------|----------------|
     D|----------------|----------------|----------------|----------------|
     A|----------------|----------------|----------------|-------------333|
     E|----------------|----------------|----------------|----------------|
     
     G|----------------|----------------|----------------|----------------|
     D|----------------|----------------|----------------|----------------|
     A|3-------------33|3-------------33|3-------------33|3-------------33|
     E|----------------|----------------|----------------|----------------|
     
       11/8 time
     G|----------------------|
     D|----------------------|
     A|3--6--5--8--7--10-9333|
     E|----------------------|
     
       4/4 tme
     G|----------------|----------------|----------------|----------------|
     D|----------------|----------------|----------------|----------------|
     A|3-------------33|3-------------33|3-------------33|3-------------33|
     E|----------------|----------------|----------------|----------------|
     
       11/8 time
     G|----------------------|
     D|----------------------|
     A|3--6--5--8--7--10-9333|
     E|----------------------|
     
       4/4 time
     G|----------------|----------------|----------------|----------------|
     D|----------------|----------------|----------------|----------------|
     A|3-----------10--|9-----------10--|12----------7---|9-----------4---|
     E|----------------|----------------|----------------|----------------|
       Bright light almost blinding.....
     
     G|----------------|----------------|----------------|----------------|
     D|----------------|----------------|----------------|----------------|
     A|3-----------10--|9-----------10--|12----------7---|9-----------4---|
     E|----------------|----------------|----------------|----------------|
     
     G|----------------|----------------|----------------|----------------|
     D|----------------|----------------|----------------|----------------|
     A|3-----------10--|9-----------10--|12--14------7---|9------------333|
     E|----------------|----------------|----------------|----------------|
     
     G|----------------|----------------|----------------|----------------|
     D|----------------|----------------|----------------|----------------|
     A|3-------------33|3-------------33|3-------------33|3-------------33|
     E|----------------|----------------|----------------|----------------|
     
     11/8 time
     G|----------------------|
     D|----------------------|
     A|3--6--5--8--7--10-9333|
     E|----------------------|
     
       4/4 time
     G|----------------|----------------|----------------|----------------|
     D|----------------|----------------|----------------|----------------|
     A|3-------------33|3-------------33|3-------------33|3-------------33|
     E|----------------|----------------|----------------|----------------|
       Mmm, I`m telling you now....
     
     11/8 time
     G|----------------------|
     D|----------------------|
     A|3--6--5--8--7--10-9333|
     E|----------------------|
     
       4/4 time
     G|----------------|----------------|----------------|----------------|
     D|----------------|----------------|----------------|----------------|
     A|3-----------10--|9-----------10--|12----------7---|9-----------4---|
     E|----------------|----------------|----------------|----------------|
       Met a man on the road cryin`.....
     
     G|----------------|----------------|----------------|----------------|
     D|----------------|----------------|----------------|----------------|
     A|3-----------10--|9-----------10--|12----------7---|9-----------4---|
     E|----------------|----------------|----------------|----------------|
     
     G|----------------|----------------|----------------|----------------|
     D|----------------|----------------|----------------|----------------|
     A|3-----------10--|9-----------10--|12--14------7---|9------------333|
     E|----------------|----------------|----------------|----------------|
     
     G|----------------|----------------|----------------|----------------|
     D|----------------|----------------|----------------|----------------|
     A|3-------------33|3-------------33|3-------------33|3-------------33|
     E|----------------|----------------|----------------|----------------|
     
     11/8 time
     G|----------------------|
     D|----------------------|
     A|3--6--5--8--7--10-9333|
     E|----------------------|
     
       4/4 time
     G|----------------|----------------|----------------|----------------|
     D|----------------|----------------|----------------|----------------|
     A|3-------------33|3-------------33|3-------------33|3-------------33|
     E|----------------|----------------|----------------|----------------|
       Mmm, I`m telling you now....
     
     11/8 time
     G|----------------------|
     D|----------------------|
     A|3--6--5--8--7--10-9333|
     E|----------------------|
     
       4/4 time
     G|----------------|----------------|----------------|----------------|
     D|----------------|----------------|----------------|----------------|
     A|3---------------|----------------|3---------------|----------------|
     E|----------------|----------------|----------------|----------------|
     
     G|----------------|----------------|----------------|----------------|
     D|----------------|----------------|----------------|----------------|
     A|3---------------|----------------|3---------------|----------------|
     E|----------------|----------------|----------------|----------------|
     
     G|----------------|----------------|----------------|----------------|
     D|----------------|----------------|----------------|----------------|
     A|3---------------|----------------|3---------------|----------------|
     E|----------------|----------------|----------------|----------------|
     
     G|----------------|----------------|----------------|----------------|
     D|----------------|----------------|----------------|----------------|
     A|3---------------|----------------|3---------------|----------------|
     E|----------------|----------------|----------------|----------------|
     
     G|----------------|----------------|----------------|----------------|
     D|----------------|----------------|----------------|----------------|
     A|3---------------|----------------|3---------------|----------------|
     E|----------------|----------------|----------------|----------------|
     

    Тональность:

    Нет текста!



    Назад
    Рекомендуем посмотреть другие песни исполнителя «Led Zeppelin»:

    • Комментарии Facebook ()
    • Комментарии ВКонтакте



    Добавить в Избранное Браузера
    Сохранить здесь Очистить


    x

    0


    +
    -

    +
    -

    -

    Авторизация





    Зарегистрироваться

    M

    Дата и время

    • 23:28:43
       

    Социальные ссылки


    Наши приложения

    • Muzbank App Play Market
    • Muzbank Amazon App