MUZBANK



A Most Complete Bank Of Music Information

МУЗЫКАЛЬНО-ИНФОРМАЦИОННЫЙ БАНК

Поиск по сайту







    LLed Zeppelin • Tea For One (аккорды и текст - chords & lyrics)


    290

    Print

    Видео «Tea For One (Led Zeppelin)»

    Видео клипы к песне подбираются автоматически сайтом youtube. Возможны некоторые несоответствия клипов песне.

    ↑ Спрятать рекламу ↑



    Download



    Tea For One ---- 3/4 blues in Cm
    
    8 bars of Cm
    8 bars of Fm
    8 bars of Cm
    4 bars of Gm (first bar is actually 2 beats of Fm and
    2 bars of Fm one beat of Gm)
    2 bars of Bb
    back to Cm
    
    E|--3----1----3----6-|
    B|--4----1----3----6-|
    G|--5----1----3----7-|
    D|--5----3----5----8-|
    A|--3----3----5----8-|
    E|-------1----3----6-|
        Cm   Fm   Gm   Bb
    
    E|--------------|
    B|-------6--(4)-|
    G|--------------|
    D|---5s7---7s5--|
    A|--------------|
    E|--------------|
    riff played over Cm every so often
    ...let notes ring (that F has to go back down to Eb)
    
    E|-------------|
    B|-------------|
    G|------3--(1)-|
    D|-------------|
    A|--3s5---5s3--|
    E|-------------|
    same riff played over Fm
    
    E|---6--8--10--10--8h10p8-|
    B|------------------------|
    G|---7--8--10--10--8h10p8-|
    D|------------------------|
    A|------------------------|
    E|------------------------|
       Bb        Cm
    riff played at the end of each verse
    
    Every so often a verse is played like this:
    E|---------------------------------|
    B|---------------------------------|
    G|--3--5-----3--5----3--5----------|
    D|--3--5-----3--5----------3--5----| Play twice
    A|--1--3-----1--3----------------6-|
    E|---------------------------------|
    
    E|-----------------------------|
    B|-----------------------------|
    G|-8--10--8--10--3--5----------| Play once, then the above bit
    D|-8--10--8--10--------3--5----|
    A|-6---8--6---8--------------6-|
    E|-----------------------------|
    
    E|-----------4-------4--------------6-----6--8--10--10--8h10p8-|
    B|---------6---6-------6----------6---6------------------------|
    G|-------5-------5-------5------7---------7--8--10--10--8h10p8-|
    D|-3-5-3-----------3-------3--8--------------------------------|
    A|-3-5---------------------------------------------------------|
    E|-1-3---------------------------------------------------------|
             This is an arpeggio bit   This is the familiar riff ...
             similar to what Pagey
             plays each time through
    

    Тональность:

    Нет текста!



    Назад
    Рекомендуем посмотреть другие песни исполнителя «Led Zeppelin»:

    • Комментарии Facebook ()
    • Комментарии ВКонтакте



    Добавить в Избранное Браузера
    Сохранить здесь Очистить


    x

    0


    +
    -

    +
    -

    -

    Авторизация





    Зарегистрироваться

    M

    Дата и время

    • 22:30:48
       

    Социальные ссылки


    Наши приложения

    • Muzbank App Play Market
    • Muzbank Amazon App