MUZBANK



A Most Complete Bank Of Music Information

МУЗЫКАЛЬНО-ИНФОРМАЦИОННЫЙ БАНК

Поиск по сайту







    LLed Zeppelin • Thank You (аккорды и текст - chords & lyrics)


    405

    Print

    Видео «Thank You (Led Zeppelin)»

    Видео клипы к песне подбираются автоматически сайтом youtube. Возможны некоторые несоответствия клипов песне.

    ↑ Спрятать рекламу ↑



    Download



    Riff A
    E|---------3-2-0-0-2----2-0---2-|---------3-2-0-0-2----2-0---2-|
    B|---------3-3-3-3-3----3-3---3-|-------3-3-3-3-3-3----3-3---3-|
    G|-----2---2-2-2-2-2----2-2---2-|-----0---0-0-0-0-0----0-0---0-|
    D|-0----------------------------|------------------------------|
    A|------------------------------|2h3---------------------------|
    E|------------------------------|------------------------------|
    
    E|---------3-2-0-0-2-----2-0---2-|-------2-----2-2---3(3)3-3-3-|
    B|---------3-3-3-3-3-----3-3---3-|-------3-----3-3---3(3)3-3-3-|
    G|-------0-0-0-0-0-0-----0-0---0-|-2-----2-----2-2---2(2)2-2-2-|
    D|-----0-------------------------|-0---------------------------|
    A|-0h2---------------------------|-----------------------------|
    E|-------------------------------|-----------------------------|
    								end of riff A
    			Repeat first 3 measures
    			of the section above and
    		        then proceed below.
    
    E|------2--(2)-(2)2-2-3(3)3-3-|-2--(2)-(2)-(2)-(2)-(2)-(2)-(2)-|
    B|------3--(3)-(3)3-3-3(3)3-3-|-3--(3)-(3)-(3)-(3)-(3)-(3)-(3)-|
    G|-2----2--(2)-(2)2-2-2(2)2-2-|-2--(2)-(2)-(2)-(2)-(2)-(2)-(2)-|
    D|-0--------------------------|-0--(0)-(0)-(0)-(0)-(0)-(0)-(0)-|
    A|----------------------------|--------------------------------|
    E|----------------------------|--------------------------------|
    
    			Rest for the next 4 measures
    
    E|-----------------3-----3-----|-----------------3-------3-----|
    B|-------------3-------------3-|-------------3-------3-------3-|
    G|---------0-------------------|---------0---------------------|
    D|-----2---------------2-------|-----0-------------------------|
    A|-3---------------------------|-0h2---------------------------|
    E|-----------------------------|-------------------------------|
    
    E|-------------2---3---2---------|-2---2-2----2-2----2-2---2-2-|
    B|---------3---------------3-----|-3---3-3----3-3----3-3---3-3-|
    G|-----2-----------------------2-|-2---2-2----2-2----2-2---2-2-|
    D|-0-----------------------------|-0---0-0----0-0----0-0---0-0-|
    A|-------------------------------|-----------------------------|
    E|-------------------------------|-----------------------------|
    
    E|-2---2---2---2---2---2---2-|-7---7---7--(7)7-7---7---7---0-|
    B|-3---3---3---3---3---3---3-|-9---9---9--(9)9-9---9---9---0-|
    G|-4---4---4---4---4---4---4-|-9---9---9--(9)9-9---9---9---0-|
    D|-4---4---4---4---4---4---4-|-9---9---9--(9)9-9---9---9---0-|
    A|---------------------------|-------------------------------|
    E|---------------------------|-------------------------------|
    
    E|-2---2---2-----2-2-------2-------|-7---R---0--(0)-(0)-(0)--R-|
    B|-3---3---3-----3-3-------3-------|-9---R---2--(2)-(2)-(2)--R-|
    G|-4---4---4-----4-4-------4-----9-|-9---R---2--(2)-(2)-(2)--R-|
    D|-4---4---4-----4-4-------4-----9-|-9---R---2--(2)-(2)-(2)--R-|
    A|---------------------------------|---------------------------|
    E|---------------------------------|---------------------------|
    
    E|-0--0--0--0--0---0---0---0-|-3---3---3---3---3---3---3---3-3-|
    B|-1--1--1--1--1---1---1---1-|-3---3---3---3---3---3---3---3-3-|
    G|-0--0--0--0--0---0---0---0-|-0---0---0---0---0---0---0---0-0-|
    D|-2--2--2--2--2---2---2---2-|-0---0---0---0---0---0---0---0-0-|
    A|-3--3--3--3--3---3---3---3-|-2---2---2---2---2---2---2---2-2-|
    E|---------------------------|---------------------------------|
    
    E|-2--2--2--2--3-3-3---3-3-3-3-|-2-------2-----2-2-2-2---2-2-2-|
    B|-3--3--3--3--3-3-3---3-3-3-3-|-3-------3-----3-3-3-3---3-3-3-|
    G|-2--2--2--2--2-2-2---2-2-2-2-|-2-------2-----2-2-2-2---2-2-2-|
    D|-0--0--0--0--0-0-0---0-0-0-0-|-0-------0-----0-0-0-0---0-0-0-|
    A|-----------------------------|-------------------------------|
    E|-----------------------------|-------------------------------|
    
    E|-0--0-0-0--0-0-0---0-0-0---0-0-|-3---3-3-3-----3-3---3-3---3-|
    B|-1--1-1-1--1-1-1---1-1-1---1-1-|-0---0-0-0-----0-0---0-0---0-|
    G|-0--0-0-0--0-0-0---0-0-0---0-0-|-0---0-0-0-----0-0---0-0---0-|
    D|-2--2-2-2--2-2-2---2-2-2---2-2-|-0---0-0-0-----0-0---0-0---0-|
    A|-3--3-3-3--3-3-3---3-3-3---3-3-|-2---2-2-2-----2-2---2-2---2-|
    E|-------------------------------|-----------------------------|
    
    E|-2--2-2-2--2-2-3-3-3--3-3-3-3-|-2--2-2-2--2-2-2-2-2--2-2-2-2-|
    B|-3--3-3-3--3-3-3-3-3--3-3-3-3-|-3--3-3-3--3-3-3-3-3--3-3-3-3-|
    G|-2--2-2-2--2-2-2-2-2--2-2-2-2-|-2--2-2-2--2-2-2-2-2--2-2-2-2-|
    D|-0--0-0-0--0-0-0-0-0--0-0-0-0-|-0--0-0-0--0-0-0-0-0--0-0-0-0-|
    A|------------------------------|------------------------------|
    E|------------------------------|------------------------------|
    
    E|-2--2-2-2---2-2-2---2---2--2-|-7---7---7--(7)7-7-----7-7---7-|
    B|-3--3-3-3---3-3-3---3---3--3-|-9---9---9--(9)9-9-----9-9---9-|
    G|-4--4-4-4---4-4-4---4---4--4-|-9---9---9--(9)9-9-----9-9---9-|
    D|-4--4-4-4---4-4-4---4---4--4-|-9---9---9--(9)9-9-----9-9---9-|
    A|-----------------------------|-------------------------------|
    E|-----------------------------|-------------------------------|
    
    E|-2-----2-2---2---2-----2-2-------|-7---R---0--(0)-(0)-(0)--R-|
    B|-3-----3-3---3---3-----3-3-------|-9---R---2--(2)-(2)-(2)--R-|
    G|-4-----4-4---4---4-----4-4-----9-|-9---R---2--(2)-(2)-(2)--R-|
    D|-4-----4-4---4---4-----4-4-----9-|-9---R---2--(2)-(2)-(2)--R-|
    A|---------------------------------|---------------------------|
    E|---------------------------------|---------------------------|
    
    E|--------3-2-0-0-2----2-0---2-|---------3-2-0-0-2-----2-0---2-|
    B|--------3-3-3-3-3----3-3---3-|---------3-3-3-3-3-----3-3---3-|
    G|--------2-2-2-2-2----2-2---2-|-----0---0-0-0-0-0-----0-0---0-|
    D|-0---------------------------|-3-----------------------------|
    A|-----------------------------|-------------------------------|
    E|-----------------------------|-------------------------------|
    
    E|---------3-2-0-0-2-2-0-2-|
    B|---------3-3-3-3-3-3-3-3-|Solo starts here (transcribed below)
    G|-------0-0-0-0-0-0-0-0-0-| Continue with rythym work by
    D|-----0-------------------|  repeating Riff A thru solo.
    A|-0h2---------------------|
    E|-------------------------|
    
    Acoustic solo:
    
    E|---------------------------|-------7-------------------------|
    B|---------------------------|-7-8-10-10-8-7---7-----------7-8-|
    G|-----------------4-6-7-7-9-|---------------9---9-7-6-7-9-----|
    D|-7-(7)-(7)-4-5-7-----------|---------------------------------|
    A|---------------------------|---------------------------------|
    E|---------------------------|---------------------------------|
    
    E|----7----------------------7-|--------5-7---------5-7-5------|
    B|(8)---10-10-8-8-(8)-7-8-10---|---5h7h8-------5h7h8-----8-7-8-|
    G|-----------------------------|6h7---------6h7----------------|
    D|-----------------------------|-------------------------------|
    A|-----------------------------|-------------------------------|
    E|-----------------------------|-------------------------------|
    
    E|---------------------------|---------------------------------|
    B|-8-8-8-7-7-7---------------|---------------------------------|
    G|-----------------------7-R-|-7--(7)--7-6-7-6-4-6---4---------|
    D|-----------------7-9-------|-0--(0)--------------7---5-7-4-5-|
    A|---------------------------|---------------------------------|
    E|---------------------------|---------------------------------|
    
    E|-------------------------------|---------------7-5-----------|
    B|-------------------------------|---------5-7-8-----8-7-5-7-8-|
    G|-------------------------------|---4-6-7---------------------|
    D|-5---4-------------------4-5-7-|-7---------------------------|
    A|---7---7-5--(5)--5-4-5-7-------|-----------------------------|
    E|-------------------------------|-----------------------------|
    
    E|--------------------------------|-3------(3)-----(3)-----(3)-|
    B|-8-7-7---7-------8-7-7---8-7-7--|-3------(3)-----(3)-----(3)-|
    G|--------------------------------|-2------(2)-----(2)-----(2)-|
    D|--------------------------------|----------------------------|
    A|--------------------------------|----------------------------|
    E|--------------------------------|----------------------------|
    
    Rest for the next 3 measures
    
    E|-5p0-2p0-------------------|---------------------------------|
    B|---------------3-----------|-------------1-------1-----------|
    G|-----------2/4---42--------|---------0-------0---------------|
    D|---------------------0-----|-----2-------------------2p0---0-|
    A|-----------------------2-0-|-3---------------------------3---|
    E|---------------------------|---------------------------------|
    
    E|-----------------------------|-------------0---2-------2---2-|
    B|--------------1--------------|---------3-------------------3-|
    G|-----------0-----2p0---------|-----2---------------2-------2-|
    D|-2p0----0------------2p0-----|-0---------------------------0-|
    A|-----2-------------------0h2-|-------------------------------|
    E|-----------------------------|-------------------------------|
    
    E|-3-3-3-2-2-2-2-2-2---2-2-2-2-|-2---2-2-2---2-2-2---2---2---2-|
    B|-3-3-3-3-3-3-3-3-3---3-3-3-3-|-3---3-3-3---3-3-3---3---3---3-|
    G|-2-2-2-2-2-2-2-2-2---2-2-2-2-|-4---4-4-4---4-4-4---4---4---4-|
    D|-0-0-0-0-0-0-0-0-0---0-0-0-0-|-4---4-4-4---4-4-4---4---4---4-|
    A|-----------------------------|-------------------------------|
    E|-----------------------------|-------------------------------|
    
    E|-7--7--7-----7-7-----7-7---7-|-2---2---2---2---2---2---2---2-|
    B|-9--9--9-----9-9-----9-9---9-|-3---3---3---3---3---3---3---3-|
    G|-9--9--9-----9-9-----9-9---9-|-4---4---4---4---4---4---4---4-|
    D|-9--9--9-----9-9-----9-9---9-|-4---4---4---4---4---4---4---4-|
    A|-0--0--0-----0-0-----0-0---0-|-------------------------------|
    E|-----------------------------|-------------------------------|
    
    E|-7-------0-------R-|
    B|-9-------2-------R-|
    G|-9-----2-2-------R-|  Rest for the next 4 measures
    D|-9-----2-2-------R-|
    A|-0-----------------|
    E|-------------------|
    
    E|-5-7-5-----------------------|-------------------------3---0-|
    B|-------8-7-5-----------------|-------------1-----------------|
    G|-------------2-4-2-----------|---------0---------------------|
    D|-------------------5-4-2---0-|-----2-------------------------|
    A|-------------------------3---|-3-----------------------------|
    E|-----------------------------|-------------------------------|
    
    E|------------------------------|--------5---2---3p2-----------|
    B|------------------------------|--------------------3---3p0---|
    G|------------------------------|----2-----------------------2-|
    D|-----0h2p0----------0h2p0-----|-0----------------------------|
    A|-0h2---------0--0h2---------2-|------------------------------|
    E|------------------------------|------------------------------|
    
    E|--------------------------------|----------------------------|
    B|--------------------------------|----------------------------|
    G|-2p0----------------------------|----------------------------|
    D|-----4---2p0-----0h2p0---0------|----------------------------|
    A|-------------0h2-------2-----2--|-3------(3)-----(3)-----(3)-|
    E|--------------------------------|----------------------------|
    
    E|------------------------------|----------------------------||
    B|------------------------------|----------------------------||
    G|------------------------------|-2------(2)-----(2)-----(2)-||
    D|------------------------------|-0------(0)-----(0)-----(0)-||
    A|-2------(2)-----(2)-----(2)---|----------------------------||
    E|------------------------------|----------------------------||
    

    Тональность:

    Нет текста!



    Назад
    Рекомендуем посмотреть другие песни исполнителя «Led Zeppelin»:

    • Комментарии Facebook ()
    • Комментарии ВКонтакте



    Добавить в Избранное Браузера
    Сохранить здесь Очистить


    x

    0


    +
    -

    +
    -

    -

    Авторизация





    Зарегистрироваться

    M

    Дата и время

    • 03:01:37
       

    Социальные ссылки


    Наши приложения

    • Muzbank App Play Market
    • Muzbank Amazon App