MUZBANK



A Most Complete Bank Of Music Information

МУЗЫКАЛЬНО-ИНФОРМАЦИОННЫЙ БАНК

Поиск по сайту







    LLeftover Crack • Homeo Apathy (аккорды и текст - chords & lyrics)


    215

    Print

    Видео «Homeo Apathy (Leftover Crack)»

    Видео клипы к песне подбираются автоматически сайтом youtube. Возможны некоторые несоответствия клипов песне.

    ↑ Спрятать рекламу ↑



    Download



     
    
    
    Artist:Leftover Crack
    song:Homeo Apathy
    
    Intro
    E-----------------------|
    B-----------------------|
    G-----------------------|        repeat a lot
    D-----7-10-8888---------|
    A-----7-10-8888---------|
    E-----5-8--6666---------|
    
    then
    
    verse
    E-------------------------------|
    B-------------------------------|
    G-------------------------------|
    D-----10-10-10-999-888-777------|     repeat this a few time
    A-----10-10-10-999-888-777------|
    E-----8--8--8--777-666-555------|
    
    E--------------------------------------|
    B--------------------------------------|
    G----10-10-9-9-8-8-7-77777-------------|
    D----10-10-9-9-8-8-7-77777---7-10-8888-|
    A----8--8--7-7-6-6-5-55555---7-10-8888-|
    E----------------------------5-8--6666-|
    
    tabbed by : Mr.Santa rimri@freemail.hu
     

    Тональность:

    Нет текста!



    Назад
    Рекомендуем посмотреть другие песни исполнителя «Leftover Crack»:

    • Комментарии Facebook ()
    • Комментарии ВКонтакте



    Добавить в Избранное Браузера
    Сохранить здесь Очистить


    x

    0


    +
    -

    +
    -

    -

    Авторизация





    Зарегистрироваться

    M

    Дата и время

    • 12:44:34
       

    Социальные ссылки


    Наши приложения

    • Muzbank App Play Market
    • Muzbank Amazon App