MUZBANK



A Most Complete Bank Of Music Information

МУЗЫКАЛЬНО-ИНФОРМАЦИОННЫЙ БАНК

Поиск по сайту







    ЛЛенинград • Ду ю лав ми (аккорды и текст - chords & lyrics)


    497

    Print

    Видео «Ду ю лав ми (Ленинград)»

    Видео клипы к песне подбираются автоматически сайтом youtube. Возможны некоторые несоответствия клипов песне.

    ↑ Спрятать рекламу ↑



    Download



    [рифф]
    
    Hm
    У тебя глаза такие,
    Hm Em
    
    
    Обалденные глаза,
    Em Hm
    Подыхаю от любви я,
    G F#
    Отказали тормоза,
    Вот влюбился, все пиздец,
    Так что сводит брюхо,
    Думал ангел ты с небес,
    Оказалась шлюха.
    
    Em Hm
    Дай мне, дай мне, дай мне, дай мне, дай любви,
    Em F# G
    Я кричу тебе, тебе, тебе, бе: дую ю лав ми!
    
    [рифф]
    
    Между бабой и деньгами
    Для меня нет разницы,
    Говоришь: "Люблю тебя!"
    А в ответ - "Иди ты в задницу",
    Нож по вене поперек,
    Поперек любви моей,
    Сердце бьется об висок,
    Словно в клетке соловей.
    
    [соло]
    
    Дай мне, дай мне, дай мне, дай мне, дай любви,
    Я кричу тебе, тебе, тебе, бе: дую ю лав ми!
    Дай мне, дай мне, дай мне, дай мне, дай любви,
    Я кричу тебе, тебе, тебе, бе: дую ю лав ми!
    
    [аутро]
    
    [соло]
    Дай мне, дай мне, дай мне, дай мне, дай любви,
    Я кричу тебе, тебе, тебе, тебе: дую ю лав ми!
    
    Рифф играется следующим макаром:
    
    Hm
    e|-----------------------------------------|
    B|-----------------------------------------|
    G|-----------------------------------------|
    D|------3-4-3-4-----3-4-3-4-----3-4-3-4----|
    A|-2-6----------2-6---------2-6---------2--|
    E|-----------------------------------------|
    
    А соло вот так:
    
    Hm Em
    e|-----------------------------------------|
    B|-----------------------------------------|
    G|-----------------------------------------|
    D|-----------------------------------------|
    A|---2-2-2-4---2-2----2-2-2-4--------------|
    E|-2---------5------2---------5-3----------|
    Hm G F#
    e|-----------------------------------------|
    B|-----------------------------------------|
    G|-----------------------------------------|
    D|---2-2-2-4---2-2--5-5-5-7-5-4------------|
    A|-2---------5-----------------------------|
    E|-----------------------------------------|
    
    Аутро:
    
    Hm
    e|-----1^2^1^2--|
    B|---3----------|
    G|--------------|
    D|--------------| 4 раза
    A|-2------------|
    E|--------------|
    
    

    Тональность:

    Нет текста!



    Назад
    Рекомендуем посмотреть другие песни исполнителя «Ленинград»:

    • Комментарии Facebook ()
    • Комментарии ВКонтакте



    Добавить в Избранное Браузера
    Сохранить здесь Очистить


    x

    0


    +
    -

    +
    -

    -

    Авторизация





    Зарегистрироваться

    M

    Дата и время

    • 01:35:44
       

    Социальные ссылки


    Наши приложения

    • Muzbank App Play Market
    • Muzbank Amazon App