MUZBANK



A Most Complete Bank Of Music Information

МУЗЫКАЛЬНО-ИНФОРМАЦИОННЫЙ БАНК

Поиск по сайту







    ЛЛенинград • Инструментал (аккорды и текст - chords & lyrics)


    294

    Print

    Видео «Инструментал (Ленинград)»

    Видео клипы к песне подбираются автоматически сайтом youtube. Возможны некоторые несоответствия клипов песне.

    ↑ Спрятать рекламу ↑



    Download


    Главный рифф:
    E|---------------------------------|
    B|---------------------------------|
    G|---------------------------------|
    D|---------------0-2-2-2-2-2-0-----|
    A|-0-0-0-0-0-2-3---------------3-2-|
    E|---------------------------------|
    
    E|---------------0-|
    B|---------------0-|
    G|---------------1-|
    D|---------------2-|
    A|-0-0-0-0-0-2-3-2-|
    E|---------------0-|
    
    Другой рифф:
    E|------------------------------0-|
    B|------------------------------0-|
    G|------------------------------1-|
    D|------2^0-2-[2-0----]---2^0-2-2-|
    A|----0-------[----3-2]-0-------2-|
    E|-0----------------------------0-|
    
    в конце он играется иначе:
    E|------------------------------0-|
    B|------------------------------0-|
    G|------------------------------1-|
    D|------2^0-2-/7-7-7-5----2^0-2-2-|
    A|----0-----------------0-------2-|
    E|-0----------------------------0-|

    Тональность:

    Нет текста!



    Назад
    Рекомендуем посмотреть другие песни исполнителя «Ленинград»:

    • Комментарии Facebook ()
    • Комментарии ВКонтакте



    Добавить в Избранное Браузера
    Сохранить здесь Очистить


    x

    0


    +
    -

    +
    -

    -

    Авторизация





    Зарегистрироваться

    M

    Дата и время

    • 21:46:18
       

    Социальные ссылки


    Наши приложения

    • Muzbank App Play Market
    • Muzbank Amazon App