MUZBANK



A Most Complete Bank Of Music Information

МУЗЫКАЛЬНО-ИНФОРМАЦИОННЫЙ БАНК

Поиск по сайту







    ЛЛенинград • Комон Эврибади (аккорды и текст - chords & lyrics)


    197

    Print

    Видео «Комон Эврибади (Ленинград)»

    Видео клипы к песне подбираются автоматически сайтом youtube. Возможны некоторые несоответствия клипов песне.

    ↑ Спрятать рекламу ↑



    Download



     
    
    
    Intro:
    
                                                    x2 раза                          
    1------------------------||
    2------------------------||  
    3||--6-7-7-7--6-7-7-7--6-7-7-7-7-6-7-------------||  
    4||--x-x-x-x--x-x-x-x--x-x-x-x-x-x-x-------------|| 
    5||--4-5-5-5--4-5-5-5--4-5-5-5-5-4-5-------------||
    6------------------------||
    
    1---------------------------||
    2---------------------------||  
    3||--9-10-10-10--9-10-10-10--9-10-10-10-10--9-10----||  
    4||--x--x--x--x--x--x--x--x--x--x--x--x--x--x--x----||  
    5||--7--8--8--8--7--8--8--8--7--8--8--8--8--7--8----||
    6---------------------------||
    
    1------------------||
    2------------------|| 
    3||--14--13--12--11--10----6/7-------------||  
    4||---x---x---x---x---x----x-x-------------||
    5||--12--11--10---9---8----4/5-------------||
    6------------------||
    
    
    Intro играется 2 раза.Первый раз более отрывисто (правая рука играет только боем вниз), 
    второй раз правая рука играет туда-обратно.
    
    Dm
    Вы пришли сюда затем ,чтоб веселиться
                  C
    И потанцевать, если повезет.
     A
    А песня моя, она как птица.
     A7                 D5     
    В воздухе летает и бешено оре-ее-ееее-т!
    
    Припев (2 раза)
    
    D5               Ab5/A5 A5 A5  Ab5/A5 A5 A5
    Ко-мон эврибади!!!
    D5               Ab5/A5 A5 A5  Ab5/A5 A5 A5
    Двигай жопой, суки-бляди!!!
    
    
    Проигрыш после припева:
    
    Ab5/A5 A5 A5  Ab5/A5 A5 A5   Db5/D5 D5 D5 D5 D5 D5 (2 раза) 
    
    Intro 2 раза:
    
    
    Dm
    Пива нада выпить-в горле пересохло.
                      C
    В горле пересохло,на душе тоска.
     A
    Ну что же ты, приятель, еще не колбасишься?
     A7                 D5
    Надо колбаситься и вот моя рука !!!
    
    
    Ко-мон эврибади!!!
    
    Двигай жопой, суки-бляди!!!
     

    Тональность:

    Нет текста!



    Назад
    Рекомендуем посмотреть другие песни исполнителя «Ленинград»:

    • Комментарии Facebook ()
    • Комментарии ВКонтакте



    Добавить в Избранное Браузера
    Сохранить здесь Очистить


    x

    0


    +
    -

    +
    -

    -

    Авторизация





    Зарегистрироваться

    M

    Дата и время

    • 04:59:30
       

    Социальные ссылки


    Наши приложения

    • Muzbank App Play Market
    • Muzbank Amazon App