MUZBANK



A Most Complete Bank Of Music Information

МУЗЫКАЛЬНО-ИНФОРМАЦИОННЫЙ БАНК

Поиск по сайту







    ЛЛенинград • Маленький мальчик (аккорды и текст - chords & lyrics)


    471

    Print

    Видео «Маленький мальчик (Ленинград)»

    Видео клипы к песне подбираются автоматически сайтом youtube. Возможны некоторые несоответствия клипов песне.

    ↑ Спрятать рекламу ↑



    Download



    [интро]
    
    Cm
    Маленький мальчик нашел пулемет,
    Cm G
    Больше в деревне никто не живет,
    G
    И когда он людей убивал,
    
    G Cm
    Песенку эту он напивал:
    
    Cm G
    "Небо коптят поезда
    G G7
    И гудят провода
    G Cm D7 C7
    И с бензином вода"
    
    [Соло]
    
    Маленький мальчик лимонку нашел,
    И на занятия в школу пришел,
    И когда он чеку вырывал,
    Песенку эту он напивал:
    
    "Небо коптят поезда
    И гудят провода
    И с бензином вода"
    
    Чи-ко-ко
    
    [Соло]
    
    "Небо коптят поезда
    И гудят провода
    И с бензином вода"
    
    Интро:
    
    e|-------------------------------------------------|
    B|-------------------------------------------------|
    G|-------------------------------------------------|
    D|-----3-4-5-4-5-4-5-5---------3-4-5-4-5-4-5-5-4-3-|
    A|-3-6-----------------6-3-3-6---------------------|
    E|-------------------------------------------------|
    
    - 4 раза!!! (или я чего-то не понимаю)
    
    Соло:
    
    e|-------------------------------------------------|
    B|-------------------------------------------------|
    G|-------------------------------------------------|
    D|---5---6-5-3------3--6-5-3------5--6-5-3---------|
    A|-3------------5-6-----------5-6-----------5-6-3--|
    E|-------------------------------------------------|
    
    e|----------|
    B|----------|
    G|----------|
    D|-7-7--7-6-|
    A|----------|
    E|----------|
    

    Тональность:

    Нет текста!



    Назад
    Рекомендуем посмотреть другие песни исполнителя «Ленинград»:

    • Комментарии Facebook ()
    • Комментарии ВКонтакте



    Добавить в Избранное Браузера
    Сохранить здесь Очистить


    x

    0


    +
    -

    +
    -

    -

    Авторизация





    Зарегистрироваться

    M

    Дата и время

    • 03:14:34
       

    Социальные ссылки


    Наши приложения

    • Muzbank App Play Market
    • Muzbank Amazon App