MUZBANK



A Most Complete Bank Of Music Information

МУЗЫКАЛЬНО-ИНФОРМАЦИОННЫЙ БАНК

Поиск по сайту







    ЛЛенинград • Таня (аккорды и текст - chords & lyrics)


    317

    Print

    Видео «Таня (Ленинград)»

    Видео клипы к песне подбираются автоматически сайтом youtube. Возможны некоторые несоответствия клипов песне.

    ↑ Спрятать рекламу ↑



    Download



    Вступление
    
    Куплет:
     Cm
    Отцвели в саду тюльпаны,
    Fm
    От меня ушла Татьяна.
    Cm
    Буду с мужиками я ходить
    
    Припев: 
     Fm                   Cm
    На Фонтанку водку пить
    
    проигрыш:
    Cm  Fm
    и снова как в начале припева: 
     Fm                   Cm
    На Фонтанку водку пить!
    С мужиками водку пить!
    
    Куплет
    Вечером я сяду да у окошка, 
    Только во дворе ебутся кошки.
    Это весна пришла,
    
    Припев
    
    Таня от меня ушла.
    
    проигрыш:
    Cm  Fm
    
    Заливал беду я пивом,
    Но тоска не проходила.
    Только печаль пришла,
    Таня от меня ушла.
    
    Таня от меня ушла!
    Таня от меня ушла!
    
    
    Вступление:
                   h p p
    e|-6------------------------------------------|
    B|-3--3-4-6--4^6^4^3--------------------------|
    G|-------------------3------------------------|
    D|---------------------5----------------------|
    A|--------------------------------------------|
    E|--------------------------------------------|
    
    Куплет:
        Cm много раз, потом  Csus2
    e|-3-----------------3--3-3-------------------|
    B|-4-----------------4--3-4-------------------|
    G|-5-----------------5--5-5-------------------|
    D|-5-----------------5--5-5-------------------|
    A|-3-----------------3--3-3-------------------|
    E|-3-----------------3--3-3-------------------|
        Fm много раз, потом  Fsus2
    e|-4-----------------4--3-4-------------------|
    B|-6-----------------6--6-6-------------------|
    G|-5-----------------5--5-5-------------------|
    D|-3-----------------3--3-3-------------------|
    A|-3-----------------3--3-3-------------------|
    E|-3-----------------3--3-3-------------------|
    
    Припев: 
    играется почти как Куплет.
    
    В Проигрыше аккорд Fm берется так:
    e|-1-|
    B|-1-|
    G|-1-|
    D|-3-|
    A|-3-|
    E|-1-|

    Тональность:

    Нет текста!



    Назад
    Рекомендуем посмотреть другие песни исполнителя «Ленинград»:

    • Комментарии Facebook ()
    • Комментарии ВКонтакте



    Добавить в Избранное Браузера
    Сохранить здесь Очистить


    x

    0


    +
    -

    +
    -

    -

    Авторизация





    Зарегистрироваться

    M

    Дата и время

    • 01:19:45
       

    Социальные ссылки


    Наши приложения

    • Muzbank App Play Market
    • Muzbank Amazon App