MUZBANK



A Most Complete Bank Of Music Information

МУЗЫКАЛЬНО-ИНФОРМАЦИОННЫЙ БАНК

Поиск по сайту







    ЛЛенинград • Я - твой ковбой (аккорды и текст - chords & lyrics)


    307

    Print

    Видео «Я - твой ковбой (Ленинград)»

    Видео клипы к песне подбираются автоматически сайтом youtube. Возможны некоторые несоответствия клипов песне.

    ↑ Спрятать рекламу ↑



    Download



    Cm
    Татуировки и в кармане PLAYBOY,
    Танцую я, танцую только с тобой,
    Fm
    Танцую я, танцую только с тобой, 
    G7                               Cm
    Ты - моя лошадь, а я - твой ковбой
    
    [fill]
    Ковбой, я твой ковбой, я твой ковбой!
    
    Очки от солнца даже ночью на мне,
    С тобой готов я танцевать на луне,
    Танцую я, танцую только с тобой, 
    Ты - моя лошадь, а я - твой ковбой
    
    [fill]
    Твой ковбой!
    
    Знаю я есть любовь, 
    Есть любовь под луной,
    Знаю я, ты моя,
    Ты - моя лошадь а я - твой ковбой
    
    [fill]
    Твой ковбой...
    
    
    fill:
       Cm 
    e|-------------------------------------------|
    B|-------------------------------------------|
    G|-------------------------------------------|
    D|-----3-5--5-5-5-5-3---5------3-5-5-5-3---3-|
    A|-3-6----------------6----3-6-----------6---|
    E|-------------------------------------------|
    
       Fm                      Cm 
    e|-------------------------------------------|
    B|-------------------------------------------|
    G|-----3-5--5-5-5-5-3---6--------------------|
    D|-3-6----------------6--------3-5-5-5-3---3-|
    A|-------------------------3-6-----------6---|
    E|-------------------------------------------|
    
       G7 
    e|-------------------------------------------|
    B|-------------------------------------------|
    G|-------------------------5-5---------------|
    D|-5--5-5-5-5--3--3-3-3-3--------------------|
    A|-------------------------------------------|
    E|-------------------------------------------|

    Тональность:

    Нет текста!



    Назад
    Рекомендуем посмотреть другие песни исполнителя «Ленинград»:

    • Комментарии Facebook ()
    • Комментарии ВКонтакте



    Добавить в Избранное Браузера
    Сохранить здесь Очистить


    x

    0


    +
    -

    +
    -

    -

    Авторизация





    Зарегистрироваться

    M

    Дата и время

    • 17:50:23
       

    Социальные ссылки


    Наши приложения

    • Muzbank App Play Market
    • Muzbank Amazon App