MUZBANK



A Most Complete Bank Of Music Information

МУЗЫКАЛЬНО-ИНФОРМАЦИОННЫЙ БАНК

Поиск по сайту







    LLess Than Jake • Als War (аккорды и текст - chords & lyrics)


    308

    Print

    Видео «Als War (Less Than Jake)»

    Видео клипы к песне подбираются автоматически сайтом youtube. Возможны некоторые несоответствия клипов песне.

    ↑ Спрятать рекламу ↑



    Download


     
    
    
    Als War
    Less Than Jake
    Hello Rockview
    Tabbed by Chris
    
    Intro
    e|-----------------------------------------------------|
    B|-----------------------------------------------------|
    G|------888-----------6--------------------------------|
    D|-444--888--88-9--44-6--------------------------------|
    A|-444--666--88-9--44-4--------------------------------|
    E|-222-------66-7--22----------------------------------|
    
    e|-----------------------------------------------------|
    B|-----------------------------------------------------|
    G|----------------6-8----------------------------------|
    D|-444444444444---6-8-9--------------------------------|
    A|-444444444444---4-6-9--------------------------------|
    E|-222222222222-------7--------------------------------|
    
    Verse x4
    e|-----------------------------------------------------|
    B|-----------------------------------------------------|
    G|----------88888888---------------66666---------------|
    D|-44444444-88888888-888-99999-444-66666---------------|
    A|-44444444-66666666-888-99999-444-44444---------------|
    E|-22222222----------666-77777-222---------------------|
    
    This is played after the 4th time
    e|-----------------------------------------------------|
    B|-----------------------------------------------------|
    G|-----------------------------------------------------|
    D|--9999--11-------------------------------------------|
    A|--9999---9-------------------------------------------|
    E|--7777---9-------------------------------------------|
    
    Chorus
    e|-----------------------------------------------------|
    B|-----------------------------------------------------|
    G|----------------10111111-10-111111-10----888---------|
    D|-11111111--9999-10111111-10-111111-10----888--88-9---|
    A|-11111111--9999--8-9-9-9--8--9-9-9--8----666--88-9---|
    E|--9-9-9-9--7777-------------------------------66-7---|
    
    Post Chorus 
    e|-----------------------------------------------------|
    B|-----------------------------------------------------|
    G|-----------------------------------------------------|
    D|--444444444444----88-9-------------------------------|
    A|--444444444444----88-9-------------------------------|
    E|--222222222222----66-7-------------------------------|
    
    Repeat Verse 
    Repeat Chorus 
    
    Chrous
    e|-----------------------------------------------------|
    B|-----------------------------------------------------|
    G|----------------10111111-10-111111-10----888---------|
    D|-11111111--9999-10111111-10-111111-10----888-88-11---|
    A|-11111111--9999--8-9-9-9--8--9-9-9--8----666-88-11---|
    E|--9-9-9-9--7777------------------------------66--9---|
    
    Post Chorus
    e|-----------------------------------------------------|
    B|-----------------------------------------------------|
    G|---------1010-9999-----------101010-999--------------|
    D|--999999-1010-9999---999999--101010-999--9999-1111---|
    A|--999999--8-8-7777---999999---8-8-8-777--9999-1111---|
    E|--777777-------------777777--------------7777--9-9---|
    
    Bridge
    e|-----------------------------------------------------|
    B|-----------------------------------------------------|
    G|---------888----------------6------------------------|
    D|--444----888-----88-9----44-6------------------------|
    A|--444----666-----88-9----44-4------------------------|
    E|--222------------66-7----22--------------------------|
    
    e|-----------------------------------------------------|
    B|-----------------------------------------------------|
    G|--------------88888888-------------------------------|
    D|--44444444----88888888--888-99999----9999-11---------|
    A|--44444444----66666666--888-99999----9999-11---------|
    E|--22222222--------------666-97777----7777--9---------|
    
    e|-----------------------------------------------------|
    B|-----------------------------------------------------|
    G|---------------10-111111-10-111111-10---888----6-8---|
    D|-11111111-9999-10-111111-10-111111-10---888----6-8-7-|
    A|-11111111-9999--8--9-9-9--8--9-9-9--8---666----4-6-7-|
    E|--9-9-9-9-7777-------------------------------------5-|
    
    And you know the rest
     

    Тональность:

    Нет текста!



    Назад
    Рекомендуем посмотреть другие песни исполнителя «Less Than Jake»:

    • Комментарии Facebook ()
    • Комментарии ВКонтакте



    Добавить в Избранное Браузера
    Сохранить здесь Очистить


    x

    0


    +
    -

    +
    -

    -

    Авторизация





    Зарегистрироваться

    M

    Дата и время

    • 12:42:07
       

    Социальные ссылки


    Наши приложения

    • Muzbank App Play Market
    • Muzbank Amazon App