MUZBANK



A Most Complete Bank Of Music Information

МУЗЫКАЛЬНО-ИНФОРМАЦИОННЫЙ БАНК

Поиск по сайту







    LLess Than Jake • Surrender (аккорды и текст - chords & lyrics)


    361

    Print

    Видео «Surrender (Less Than Jake)»

    Видео клипы к песне подбираются автоматически сайтом youtube. Возможны некоторые несоответствия клипов песне.

    ↑ Спрятать рекламу ↑



    Download


     
    
    
    Song    Surrender(Bonus Track)
    Band    Less Than Jake
    Album   Anthem
    Tabber  Eaiddhi(eaiddhi@baganmail.net.mm)
    Tuning  Standard(EADGBE)
    
    
    Intro
    |----------|-----------------|
    |----------|-----------------|
    |----------|-----------------|
    |-6--------|-6-66-66-6-6-68--|
    |-8--------|-8-88-88-8-8-88--|
    |-6--------|-6-66-66-6-6-66--|
    
     Verse 1
    |--------------------------------------|
    |--------------------------------------|
    |-44444444-------------------44444444--|
    |-44444444-44444444-22222222-44444444--| repeat x 2
    |-22222222-44444444-22222222-22222222--|
    |----------22222222-00000000-----------|
     P.M. ................................ 
    
    |----------------------------------|
    |----------------------------------|
    |------------------4--44-4-4-4444--|
    |-2-2-2-2-4-4-4444-4--44-4-4-4444--|
    |-2-2-2-2-4-4-4444-2--22-2-2-2222--|
    |-0-0-0-0-2-2-2222-----------------|
    
    |--------------------------------------|
    |--------------------------------------|
    |------------------44444444------------|
    |-2-2-2-2-4-4-4444-44444444-44444444---|
    |-2-2-2-2-4-4-4444-22222222-44444444---|
    |-0-0-0-0-2-2-2222----------22222222---|
    
    
     Chorus (A)
     Guitar 1st line
    |---------------------------------------|
    |---------------------------------------|
    |-4--4-4444-----------------------------|
    |-4--4-4444-66666666-44444444-22222222--|
    |-2--2-2222-66666666-44444444-22222222--|
    |-----------44444444-22222222-00000000--|
     Guitar 2nd line
    |--------------------------------------|
    |--------------------------------------|
    |-44444444-44444444-44444444-99999999--|
    |-44444444-44444444-44444444-99999999--|
    |-22222222-22222222-22222222-77777777--|
    |--------------------------------------|
    
    Guitar 1st line
    |--------------------------------------|-------------|
    |--------------------------------------|-------------|
    |-44444444-----------------------------|-------------|
    |-44444444-66666666-44444444-22222222--|-2-----------|
    |-22222244-66666666-44444444-22222222--|-2-- x 24 ---|
    |----------44444444-22222222-00000000--|-0-----------|
     Guitar 2nd line
    |--------------------------------------|-------------|
    |--------------------------------------|-------------|
    |-44444444-44444444-44444444-99999999--|-9-----------|
    |-44444444-44444444-44444444-99999999--|-9-- x 24 ---|
    |-22222222-22222222-22222222-77777777--|-7-----------|
    |--------------------------------------|-------------|
    
    
    |----------------------|
    |----------------------|
    |----------------------|
    |-7-77-77-7-7-79-------| repeat x 2
    |-9-99-99-9-9-99-------|
    |-7-77-77-7-7-77-------|
    
     Verse 2
    |--------------------------------------|
    |--------------------------------------|
    |-44444444-------------------44444444--|
    |-44444444-44444444-22222222-44444444--| repeat x 2
    |-22222222-44444444-22222222-22222222--|
    |----------22222222-00000000-----------|
     P.M. ................................ 
    
    |----------------------------------|
    |----------------------------------|
    |------------------4--44-4-4-4444--|
    |-2-2-2-2-4-4-4444-4--44-4-4-4444--|
    |-2-2-2-2-4-4-4444-2--22-2-2-2222--|
    |-0-0-0-0-2-2-2222-----------------|
    
    |--------------------------------------|
    |--------------------------------------|
    |------------------44444444------------|
    |-2-2-2-2-4-4-4444-44444444-44444444---|
    |-2-2-2-2-4-4-4444-22222222-44444444---|
    |-0-0-0-0-2-2-2222----------22222222---|
     
     Chorus (B)
     Guitar 1st line
    |---------------------------------------|
    |---------------------------------------|
    |-4--4-4444-----------------------------|
    |-4--4-4444-66666666-44444444-22222222--|
    |-2--2-2222-66666666-44444444-22222222--|
    |-----------44444444-22222222-00000000--|
     Guitar 2nd line
    |--------------------------------------|
    |--------------------------------------|
    |-44444444-44444444-44444444-99999999--|
    |-44444444-44444444-44444444-99999999--|
    |-22222222-22222222-22222222-77777777--|
    |--------------------------------------|
    
    Guitar 1st line
    |--------------------------------------|
    |--------------------------------------|
    |-44444444-----------------------------|
    |-44444444-66666666-44444444-22222222--| repeat x 2
    |-22222244-66666666-44444444-22222222--|
    |----------44444444-22222222-00000000--|
     Guitar 2nd line
    |--------------------------------------|
    |--------------------------------------|
    |-44444444-44444444-44444444-99999999--|
    |-44444444-44444444-44444444-99999999--| repeat x 2
    |-22222222-22222222-22222222-77777777--|
    |--------------------------------------|
    
    Guitar 1st line
    |--------------------------------------|-------------|
    |--------------------------------------|-------------|
    |-44444444-----------------------------|-------------|
    |-44444444-66666666-44444444-22222222--|-2-----------|
    |-22222244-66666666-44444444-22222222--|-2-- x 24 ---|
    |----------44444444-22222222-00000000--|-0-----------|
     Guitar 2nd line
    |--------------------------------------|-------------|
    |--------------------------------------|-------------|
    |-44444444-44444444-44444444-99999999--|-9-----------|
    |-44444444-44444444-44444444-99999999--|-9-- x 24 ---|
    |-22222222-22222222-22222222-77777777--|-7-----------|
    |--------------------------------------|-------------|
    
     Verse 3 ( Change B key to C )
    |--------------------------------------|
    |--------------------------------------|
    |-55555555-------------------55555555--|
    |-55555555-55555555-33333333-55555555--| repeat x 2
    |-33333333-55555555-33333333-33333333--|
    |----------33333333-11111111-----------|
    
    |---------------------------------|
    |---------------------------------|
    |------------------5-55-5-5-5555--|
    |-3-3-3-3-5-5-5555-5-55-5-5-5555--|
    |-3-3-3-3-5-5-5555-3-33-3-3-3333--|
    |-1-1-1-1-3-3-3333----------------|
    
    |------------------------------------|
    |------------------------------------|
    |------------------55555555-55555555-|
    |-3-3-3-3-5-5-5555-55555555-55555555-|
    |-3-3-3-3-5-5-5555-33333333-33333333-|
    |-1-1-1-1-3-3-3333-------------------|
    
     Chorus
     Guitar 1st line
    |---------------------------------------|
    |---------------------------------------|
    |-55555555------------------------------|
    |-55555555-77777777-55555555-33333333---|
    |-33333333-77777777-55555555-33333333---|
    |----------55555555-33333333-11111111---|
     Guitar 2nd line
    |----------------------------------------------|
    |----------------------------------------------|
    |----------------------------------------------|
    |-55555555-55555555-55555555-1010101010101010--|
    |-33333333-33333333-33333333--8-8-8-8-8-8-8-8--|
    |----------------------------------------------|
    
     Guitar 1st line
    |---------------------------------------|----------|
    |---------------------------------------|----------|
    |-55555555------------------------------|----------|
    |-55555555-77777777-55555555-33333333---|-3--------|
    |-33333333-77777777-55555555-33333333---|-3- x 24--|
    |----------55555555-33333333-11111111---|-1--------|
     Guitar 2nd line
    |----------------------------------------------|------------|
    |----------------------------------------------|------------|
    |-55555555-55555555-55555555-1010101010101010--|-10---------|
    |-55555555-55555555-55555555-1010101010101010--|-10- x 24 --|
    |-33333333-33333333-33333333--8-8-8-8-8-8-8-8--|--8---------|
    |----------------------------------------------|------------|
    
     Solo ( Guitar 1st line )
    |--8----------------8-----------------|
    |-----8----8-----------8--------------|
    |----------9--8--7--------12--10--9--|
    |-------------------------------------|
    |-------------------------------------|
    |-------------------------------------|
     Guitar 2nd line
    |------------------------|
    |------------------------|
    |--55555555--55555555----|
    |--55555555--55555555----|
    |--33333333--xxxxxxxx----|
    |------------33333333----|
    
     Then play Chorus (B)
     Ending
    |-----------------------------------------------------------------------|
    |-----------------------------------------------------------------------|
    |--9-9-9-9-9-9-101010101010--9--------101010101010--9-9-9-9-9-9--9------|
    |-101010101010-101010101010-10--------101010101010-101010101010-10------|
    |-101010101010--8-8-8-8-8-8-10---------8-8-8-8-8-8-101010101010-10------|
    |--8-8-8-8-8-8---------------8----------------------8-8-8-8-8-8--8------|
    
     Fine.
    
      This song is very simple and easy. If you have any questions or comments just mail me!
     

    Тональность:

    Нет текста!



    Назад
    Рекомендуем посмотреть другие песни исполнителя «Less Than Jake»:

    • Комментарии Facebook ()
    • Комментарии ВКонтакте



    Добавить в Избранное Браузера
    Сохранить здесь Очистить


    x

    0


    +
    -

    +
    -

    -

    Авторизация





    Зарегистрироваться

    M

    Дата и время

    • 05:19:39
       

    Социальные ссылки


    Наши приложения

    • Muzbank App Play Market
    • Muzbank Amazon App