MUZBANK



A Most Complete Bank Of Music Information

МУЗЫКАЛЬНО-ИНФОРМАЦИОННЫЙ БАНК

Поиск по сайту







    LLevellers • Battle Of The Beanfield (аккорды и текст - chords & lyrics)


    208

    Print

    Видео «Battle Of The Beanfield (Levellers)»

    Видео клипы к песне подбираются автоматически сайтом youtube. Возможны некоторые несоответствия клипов песне.

    ↑ Спрятать рекламу ↑



    Download


     
    
    
    ------------------------------------
    LEVELLERS  -  BATTLE OF THE BEANFIELD
    -------------------------------------
    
    
      1&2&3&4& 1&2&3&4& 1&2&3&4& 1&2&3&4& 1&2&3&4& 
    G|--------|--------|--------|--------||
    D|22200000|----0000|22200000|----0000||REPEAT
    A|--------|3333----|--------|3333----||6 TIMES
    E|--------|--------|--------|--------||
    I thought I heard something..
    
    
               1&2&3&4& 1&2&3&4& 
             G|--------|--------||
             D|2---0---|----0--0||REPEAT
             A|---2---0|3--0--3-||7 TIMES
             E|--------|--------||
    Down the three o three..
    
    
      1 & 2 & 3 & 4 &  1 &2 & 3 & 4 & 
    G|----------------|0----0-2---0---||
    D|2-----2-3---0-3-|---2---------3-||REPEAT
    A|----2-----------|---------------||ONCE
    E|----------------|---------------||
    
    
      1&2&3&4& 1&2&3&4& 
    G|--------|--------||
    D|2---0---|----0--0||REPEAT
    A|---2---0|3--0--3-||4 TIMES
    E|--------|--------||
    
    
      1&2&3&4& 1&2&3&4&
    G|--------|--------||
    D|22222222|22222222||REPEAT
    A|--------|--------||4 TIMES
    E|--------|--------||
    
    
      1&2&3&4& 1&2&3&4&
    G|2---0---|----0---||
    D|--------|3-------||REPEAT
    A|--------|--------||4 TIMES
    E|--------|--------||
        As the sun rose..
    
    
      1&2&3&4& 1&2&3&4& 1&2&3&4& 1&2&3&4&
    G|--------|--------|--------|--------||
    D|2---0---|----0--0|2---0---|----0--0||REPEAT
    A|---2---0|3--0--3-|---2---0|3--0--3-||8 TIMES
    E|--------|--------|--------|--------||
       I see a pregnant woman..
    
    
    TABBED BY JOHN
    
    If you have any queries or bass tab I might be interested in please E-mail me.
    
    John Hobson    100031.1306@compuserve.com
     

    Тональность:

    Нет текста!



    Назад
    Рекомендуем посмотреть другие песни исполнителя «Levellers»:

    • Комментарии Facebook ()
    • Комментарии ВКонтакте



    Добавить в Избранное Браузера
    Сохранить здесь Очистить


    x

    0


    +
    -

    +
    -

    -

    Авторизация





    Зарегистрироваться

    M

    Дата и время

    • 16:48:51
       

    Социальные ссылки


    Наши приложения

    • Muzbank App Play Market
    • Muzbank Amazon App