MUZBANK



A Most Complete Bank Of Music Information

МУЗЫКАЛЬНО-ИНФОРМАЦИОННЫЙ БАНК

Поиск по сайту







    LLife Of Agony • Gently Sentimental (аккорды и текст - chords & lyrics)


    208

    Print

    Видео «Gently Sentimental (Life Of Agony)»

    Видео клипы к песне подбираются автоматически сайтом youtube. Возможны некоторые несоответствия клипов песне.

    ↑ Спрятать рекламу ↑



    Download


     
    
    
    GENTLY SENTIMENTAL
    BY LIFE OF AGONY
    
    TUNE DOWN ONE STEP
    
         VERSE                     (No repeat on 2nd VERSE) 
    D:||------------|------------|------------|------------||
    A:||------------|------------|------------|------------||
    F:||*-----------|------------|------------|-----------*||
    C:||*-----------|------------|------------|-----------*||
    G:||-7----------|(7)-----10-|-7----------|(7)------5/-||
    D:||------------|------------|------------|------------||
    
     D:|------------|------------|------------|------------|
     A:|------------|------------|------------|------------|
     F:|------------|------------|------------|------------|
     C:|------------|------------|------------|------------|
     G:|-7----------|(7)-----10-|-7----------|(7)-----10-|
     D:|------------|------------|------------|------------|
    
         w/wha          (3 times)   
    D:||------------|------------||------------|------------|
    A:||------------|------------||------------|------------|
    F:||*-----------|-----------*||------------|----9999999-|
    C:||*-----------|-----------*||------------|----9999999-|
    G:||-7----------|(7)-----10-||-7----------|(7)-7777777-|
    D:||------------|------------||------------|------------|
    
         SECTION 2          (3 times)
    D:||-----------------------------||---------------------------------|
    A:||-----------------------------||---------------------------------|
    F:||*------6-6-6-------7-7-7-6-6*||-------6-6-6-------7-7-7-6-6-6-6-|
    C:||*7-7-7-6-6-6-6-6-6-7-7-7-6-6*||-7-7-7-6-6-6-6-6-6-7-7-7-6-6-6-6-|
    G:||-7-7-7-4-4-4-6-6-6-5-5-5-4-4-||-7-7-7-4-4-4-6-6-6-5-5-5-4-4-4-4-|
    D:||-5-5-5-------4-4-4-----------||-5-5-5-------4-4-4---------------|
    
    VERSE
    
         SECTION 3          (7 times)
    D:||-----------------------------||---------------------------------|
    A:||-----------------------------||---------------------------------|
    F:||*------6-6-6-------7-7-7-6-6*||-------6-6-6-------7-7-7-6-6-6-6-|
    C:||*7-7-7-6-6-6-6-6-6-7-7-7-6-6*||-7-7-7-6-6-6-6-6-6-7-7-7-6-6-6-6-|
    G:||-7-7-7-4-4-4-6-6-6-5-5-5-4-4-||-7-7-7-4-4-4-6-6-6-5-5-5-4-4-4-4-|
    D:||-5-5-5-------4-4-4-----------||-5-5-5-------4-4-4---------------|
    
        SECTION 4
    D:|-----------------|-----------------|-----------------------|
    A:|-----------------|-----------------|-----------------------|
    F:|-7---7-7-7-7-7-7-|-7-7-7-7-7-7-7-7-|-10---10-10---10-10-10-|
    C:|-7---7-7-7-7-7-7-|-7-7-7-7-7-7-7-7-|-10---10-10---10-10-10-|
    G:|-5---5-5-5-5-5-5-|-5-5-5-5-5-5-5-5-|-8----8--8----8--8--8--|
    D:|-----------------|-----------------|-----------------------|
    
    D:|-----------------|-----------------|-----------------|
    A:|-----------------|-----------------|-----------------|
    F:|-9---9-9---9-9-9-|-7---7-7-7-7-7-7-|-7-7-7-7-7-7-7-7-|
    C:|-9---9-9---9-9-9-|-7---7-7-7-7-7-7-|-7-7-7-7-7-7-7-7-|
    G:|-7---7-7---7-7-7-|-5---5-5-5-5-5-5-|-5-5-5-5-5-5-5-5-|
    D:|-----------------|-----------------|-----------------|
    
    D:|-----------------------|------------------------|
    A:|-----------------------|------------------------|
    F:|-10---10-10---10-10-10-|-12---12-12-12-12-12-12-|
    C:|-10---10-10---10-10-10-|-12---12-12-12-12-12-12-|
    G:|-8----8--8----8--8--8--|-10---10-10-10-10-10-10-|
    D:|-----------------------|------------------------|
    
        CHORUS
    D:|------------------------------|------------------------------|
    A:|------------------------------|------------------------------|
    F:|-5------5------5------5---5---|-5/10-10-10-10-7--7-7--7--7-7-|
    C:|-5------5------5------5---5---|-5/10-10-10-10-7--7-7--7--7-7-|
    G:|-3------3------3------3---3---|-3/8--8--8--8--5--5-5--5--5-5-|
    D:|------------------------------|------------------------------|
    
    D:|------------------------------|------------------------------------|
    A:|------------------------------|------------------------------------|
    F:|------------------------------|---------------10--10-10--10--10-10-|
    C:|-7------7------7------7---7---|-7/10-10-10-10-10--10-10--10--10-10-|
    G:|-7------7------7------7---7---|-7/10-10-10-10-8---8--8---8---8--8--|
    D:|-5------5------5------5---5---|-5/8--8--8--8-----------------------|
    
    D:|------------------------------|------------------------------|
    A:|------------------------------|------------------------------|
    F:|-5------5------5------5---5---|-5/10-10-10-10-7--7-7--7--7-7-|
    C:|-5------5------5------5---5---|-5/10-10-10-10-7--7-7--7--7-7-|
    G:|-3------3------3------3---3---|-3/8--8--8--8--5--5-5--5--5-5-|
    D:|------------------------------|------------------------------|
    
    D:|------------------------------|------------------------------------|
    A:|------------------------------|------------------------------------|
    F:|------------------------------|------------------------------------|
    C:|-7------7------7------7---7---|-7/10-10-10-10-3--------------------|
    G:|-7------7------7------7---7---|-7/10-10-10-10-3--------------------|
    D:|-5------5------5------5---5---|-5/8--8--8--8--1----------------12-|
    
    SECTION 3
    
        OUTRO
    D:|-----------------|-----------------|-----------------------|
    A:|-----------------|-----------------|-----------------------|
    F:|-7---7-7-7-7-7-7-|-7-7-7-7-7-7-7-7-|-10---10-10---10-10-10-|
    C:|-7---7-7-7-7-7-7-|-7-7-7-7-7-7-7-7-|-10---10-10---10-10-10-|
    G:|-5---5-5-5-5-5-5-|-5-5-5-5-5-5-5-5-|-8----8--8----8--8--8--|
    D:|-----------------|-----------------|-----------------------|
    
    D:|-----------------|-----------------|-----------------|
    A:|-----------------|-----------------|-----------------|
    F:|-9---9-9---9-9-9-|-7---7-7-7-7-7-7-|-7-7-7-7-7-7-7-7-|
    C:|-9---9-9---9-9-9-|-7---7-7-7-7-7-7-|-7-7-7-7-7-7-7-7-|
    G:|-7---7-7---7-7-7-|-5---5-5-5-5-5-5-|-5-5-5-5-5-5-5-5-|
    D:|-----------------|-----------------|-----------------|
    
    D:|-----------------------------------------------------|
    A:|-----------------------------------------------------|
    F:|-10---------------------------------------------(10)-|
    C:|-10---------------------------------------------(10)-|
    G:|-8----------------------------------------------(8)--|
    D:|-----------------------------------------------------|
    
    transcribed by Paul Kiepert
    paulk@csd.uwm.edu
     

    Тональность:

    Нет текста!



    Назад
    Рекомендуем посмотреть другие песни исполнителя «Life Of Agony»:

    • Комментарии Facebook ()
    • Комментарии ВКонтакте



    Добавить в Избранное Браузера
    Сохранить здесь Очистить


    x

    0


    +
    -

    +
    -

    -

    Авторизация





    Зарегистрироваться

    M

    Дата и время

    • 11:45:04
       

    Социальные ссылки


    Наши приложения

    • Muzbank App Play Market
    • Muzbank Amazon App