MUZBANK



A Most Complete Bank Of Music Information

МУЗЫКАЛЬНО-ИНФОРМАЦИОННЫЙ БАНК

Поиск по сайту







    LLimp Bizkit • Crack Addict (аккорды и текст - chords & lyrics)


    273

    Print

    Видео «Crack Addict (Limp Bizkit)»

    Видео клипы к песне подбираются автоматически сайтом youtube. Возможны некоторые несоответствия клипов песне.

    ↑ Спрятать рекламу ↑



    Download



    pre-verse I fill I
    w/distortion pm - - - -
    E|-----------------------------------------------| |-----------|
    B|-----------------------------------------------| |-----------|
    G|-----------------------------------------------| |-----------|
    D|-----------------------------------------------| |-----------|
    A|-5~~^---------5~~^---------5~~^---------5~~^---| |--5-4--5-4-|
    E|-5~~^---------5~~^---------5~~^---------5~~^---| |--5-4--5-4-|
    
    verse fill I
    w/distortion pm - - - -
    E|-----------------------------------------------| |-----------|
    B|-----------------------------------------------| |-----------|
    G|-----------------5^7r5-------------------------| |-----------|
    D|-----------------------------------------------| |-----------|
    A|-5----5--5--------------5----5--5--------------| |--5-4--5-4-|
    E|-5----5--5--------------5----5--5--------------| |--5-4--5-4-|
    
    verse fill II
    w/distortion pm - - - - - -
    E|------------------------------------------------| |----------------|
    B|------------------------------------------------| |----------------|
    G|------------------5^7r5-------------------------| |----------------|
    D|------------------------------------------------| |----------------|
    A|--5----5--5--------------5----5--5--------------| |--5-3-0-5-3-0---|
    E|--5----5--5--------------5----5--5--------------| |--5-3-0-5-3-0---|
    
    verse fill I
    w/distortion pm - - - -
    E|-----------------------------------------------| |-----------|
    B|-----------------------------------------------| |-----------|
    G|-----------------5^7r5-------------------------| |-----------|
    D|-----------------------------------------------| |-----------|
    A|-5----5--5--------------5----5--5--------------| |--5-4--5-4-|
    E|-5----5--5--------------5----5--5--------------| |--5-4--5-4-|
    
    verse fill III
    w/distortion pm - - - - -
    E|------------------------------------------------| |------------------------|
    B|------------------------------------------------| |------------------------|
    G|------------------5^7r5-------------------------| |------------------------|
    D|------------------------------------------------| |------------------------|
    A|--5----5--5--------------5----5--5--------------| |--5-3-0-5-3-0~~~~-------|
    E|--5----5--5--------------5----5--5--------------| |--5-3-0-5-3-0~~~~-------|
    
    chorus
    E|---------------------------------------------------------------------------|
    B|---------------------------------------------------------------------------|
    G|---------------------------------------------------------------------------|
    D|---------------------------------------------------------------------------|
    A|-0-7--0-0-8-0--0-8-7--0-7--0-0-8-0--0-8-7--0-7--0-0-8-0--0-8-7--0-7--0-0-8-|
    E|-0-7--0-0-8-0--0-8-7--0-7--0-0-8-0--0-8-7--0-7--0-0-8-0--0-8-7--0-7--0-0-8-|2x
    
    pre-verse II fill I
    w/distortion pm - - - -
    E|------------------------| |-----------|
    B|------------------------| |-----------|
    G|------------------------| |-----------|
    D|------------------------| |-----------|
    A|-5~~^---------5~~^------| |--5-4--5-4-|
    E|-5~~^---------5~~^------| |--5-4--5-4-|
    
    verse
    
    fill I
    
    verse
    
    fill II
    
    verse
    
    fill III
    
    chorus
    
    bass interlude
    
    interlude
    gI
    w/chorus
    E|--------------------------------------------------------|
    B|-------------------------------------------17-16--------|
    G|----15----15-16----16-15----15----15-16-----------------|
    D|-13----13-------13-------13----13-------13--------------|
    A|--------------------------------------------------------|
    E|--------------------------------------------------------|
    
    E||--------------------------------------------------|
    B||--------------------------------------------------|
    G||-----15----15-16----16-15----15----15-16----15-14-|
    D||--13----13-------13-------13----13-------13-------|
    A||--------------------------------------------------|
    E||--------------------------------------------------|
    
    interlude
    gII
    w/distortion
    E|--------------------------------------------------------|
    B|--------------------------------------------------------|
    G|--------------------------------------------------------|
    D|--------------------------------------------------------|
    A|--6-6-6-6-6-6-0-6-6-6-6-6-6-6-0-6-6-6-6-6-6-0-6-6-6-6---|
    E|--------------------------------------------------------|
    
    E||------------------------------------------------------|
    B||------------------------------------------------------|
    G||------------------------------------------------------|
    D||------------------------------------------------------|
    A||--6-6-6-6-6-6-0-6-6-6-6-6-6-6-0-6-6-6-6-6-6-0-6-6-6-6-|
    E||------------------------------------------------------|
    
    interlude II
    gIII
    w/disrtortion, octave pedal (trem pick)
    E|--------------------------------------------------------|
    B|--------------------------------------------------------|
    G|--8------8+-----8------8+------8----8+----8-----6+------|
    D|--------------------------------------------------------|
    A|--------------------------------------------------------|
    E|--------------------------------------------------------|
    
    E||----------------------------------------------------|
    B||----------------------------------------------------|
    G||---8------8+-----8------8+------8----8+----8-----8+-|
    D||----------------------------------------------------|
    A||----------------------------------------------------|
    E||----------------------------------------------------|
    
    breakdown
    gI
    w/distortion
    E|--------------------------------------------------------------------|
    B|--------------------------------------------------------------------|
    G|--------------------------------------------------------------------|
    D|--------------------------------------------------------------------|
    A|-0-1-1-1-1-1-1-0-0-1-1-1-1-1-1-0-0-1-1-1-1-1-1-0-0-1-1-1-1-1-1-xxxx-|
    E|-0-1-1-1-1-1-1-0-0-1-1-1-1-1-1-0-0-1-1-1-1-1-1-0-0-1-1-1-1-1-1-xxxx-|
    
    breakdown
    gII
    w/distortion, octave pedal (trem pick)
    E|-----------------------------------------------------------------------|
    B|-----------------------------------------------------------------------|
    G|-8-------------------8+--------------------8------------------------8+-|
    D|-----------------------------------------------------------------------|
    A|-----------------------------------------------------------------------|
    E|-----------------------------------------------------------------------|
    
    chorus II
    w/wah, distortion
    E|--------------------------------------------------------------------------|
    B|--------------------------------------------------------------------------|
    G|--------------------------------------------------------------------------|
    D|--------------------------------------------------------------------------|
    A|-0-7-0-0-8-0--0-8-7--0-7--0-0-8-0--0-8-7--0-7--0-0-8-0--0-8-7--0-7--0-0-8-|
    E|-0-7-0-0-8-0--0-8-7--0-7--0-0-8-0--0-8-7--0-7--0-0-8-0--0-8-7--0-7--0-0-8-| 1x
    
    chorus
    
    end
    E|-------------------------------------------------------------------|
    B|-------------------------------------------------------------------|
    G|-------------------------------------------------------------------|
    D|-----------------------3--3--3--3--3--3--3--3--3--3--3--3--3--3--3-|
    A|-8--8--8--8--8--8--8---3--3--3--3--3--3--3--3--3--3--3--3--3--3--3-|
    E|-8--8--8--8--8--8--8---2--2--2--2--2--2--2--2--2--2--2--2--2--2--2-|
    
    thats it!
    
    lyrics
    
    You sayin'
    
    [pre-verse]
    
    1, for the treble and 2 for the time
    1, for the treble and 2 for the time
    1, 1, for the treble and 2 for the time
    Come on ya'll lets rock (rock)
    
    1, for the treble and 2 for the time
    1, for the treble and 2 for the time
    1, 1, for the treble and 2 for the time
    Come on ya'll lets rock
    
    [verse]
    
    Right about now
    Its time to get busy
    1, 2 thrizzy
    Shut the *** up
    And bring da balistic
    Riff from the Bizkit
    Straight thru this pick is with the
    (hey, hey)
    Check this future shock
    A rock revolution punk
    (oh my god)
    Here it comes
    So shut it up
    You keep on talkin' we gon' shut yo' ass straight the *** up
    Call the cops
    Look up in the stands
    Got anotha riot on our hands
    I pull this mic straight out my tool kit
    To fix you wannabes that ruined all the music
    But nevamind those foney's neva get it
    The foney's just deny it
    Cuz rockin' ain't a diet
    Apocalypse now
    Whos talkin *** now
    
    Gimme the count down
    
    [fill III]
    
    3, 2, 1
    
    Here we go again
    
    [chorus]
    
    Right now
    Let's go
    Me and you
    Toe to toe
    Cuz we can rock
    We can roll
    
    [pre-verse II]
    
    You sayin'
    
    1, for the treble and 2 for the time
    1, for the treble and 2 for the time
    1, 1, for the treble and 2 for the time
    Come on ya'll lets rock (rock)
    
    [verse]
    
    Now Im gonna fill up my lungs with some butane
    Turn the mic into a flame
    (damn that ***s hott)
    Super heavy
    Built like a chevy
    And I aint really mad at the
    (hey, hey)
    My significant, chocolate 3 dollar bills from the cockpit
    (oh my god)
    Round 2
    You ready for a break
    You keep on talkin Imma break you off sumthing like dis
    Full throttle
    Better be prepared
    Comin' with the kick and the snare
    And a down right dirrty
    Rutheless movment
    Why'd you have to ruin all the music
    No stoppin' til we knock, knock, knockin' on heaven's door
    Battle on da floor
    
    Apocalypse now
    Whos talkin *** now
    
    Gimme the count down
    
    [fill III]
    
    3, 2, 1
    
    Here we go again
    
    [chorus]
    
    Right now
    Let's go
    Me and you
    Toe to toe
    Cuz we can rock
    We can roll
    
    [interlude gI]
    
    I wanna tell you
    I'll tell it to ur face right now
    Not really sure that
    Not really sure I know how
    
    [interlude gII]
    
    Won't try
    Won't try
    Give you a piece of my mind
    Won't try
    Won't try
    And I hope you don't mind
    
    [interlude II gIII]
    
    I'm a crack addict
    Thats right I'm a crack addict
    You heard me I'm a crack addict
    I'm addict to crackin' skulls when punks talk static
    
    [breakdown]
    
    Its time to panic
    I'm addict to crackin' skulls when punks talk static
    
    [breakdown gII]
    
    (its time)
    Its time to panic
    (its time)
    I'm addict to crackin' skulls when punks talk static
    
    [chorus II]
    
    Here we go again
    
    [chorus]
    
    Right now
    Let's go
    Me and you
    Toe to toe
    Cuz we can rock
    We can roll
    
    [end]
    
    I dont give a ***
    Who talks that ***
    *** your fake ass
    All talk and no action
    

    Тональность:

    Нет текста!



    Назад
    Рекомендуем посмотреть другие песни исполнителя «Limp Bizkit»:

    • Комментарии Facebook ()
    • Комментарии ВКонтакте



    Добавить в Избранное Браузера
    Сохранить здесь Очистить


    x

    0


    +
    -

    +
    -

    -

    Авторизация





    Зарегистрироваться

    M

    Дата и время

    • 12:45:33
       

    Социальные ссылки


    Наши приложения

    • Muzbank App Play Market
    • Muzbank Amazon App