MUZBANK



A Most Complete Bank Of Music Information

МУЗЫКАЛЬНО-ИНФОРМАЦИОННЫЙ БАНК

Поиск по сайту







    LLimp Bizkit • Crack Addict (аккорды и текст - chords & lyrics)


    210

    Print

    Видео «Crack Addict (Limp Bizkit)»

    Видео клипы к песне подбираются автоматически сайтом youtube. Возможны некоторые несоответствия клипов песне.

    ↑ Спрятать рекламу ↑



    Download



     
    
    
    Song Title: Crack Addict
    Artist: Limp Bizkit
    Tab Made By: Mike Rejdych
    
    Eb| ----------------------------------------------------------------------|
    Bb| ----------------------------------------------------------------------|
    Gb| ----------------------------------------------------------------------|
    Db| ------2---------------------------------------------------------------|	(4x)
    Ab| ------2---------------------------------------------------------------|
    Db| ------2---------------------------------------------------------------|
    			(Let Echo)
    
    Eb| ---------------|
    Bb| ---------------|
    Gb| ---------------|
    Db| ------2--1--0--|      (2x)
    Ab| ------2--1--0--|
    Db| ------2--1--0--|
    
    Eb| --------------------------------------------------------------------------|
    Bb| --------------------------------------------------------------------------|
    Gb| --------------------------------------------------------------------------|
    Db| --2-----2-----2-2------7^-------------------------------------------------|
    Ab| --2-----2-----2-2------7^-------------------------------------------------|
    Db| --2-----2-----2-2------7^-------------------------------------------------|
    
    Eb| ---------------------------------------------------------------------------|
    Bb| ---------------------------------------------------------------------------|
    Gb| ---------------------------------------------------------------------------|
    Db| --2-----2-----2-2----2-1-x--2-1-x------------------------------------------|
    Ab| --2-----2-----2-2----2-1-x--2-1-x------------------------------------------|
    Db| --2-----2-----2-2----2-1-x--2-1-x------------------------------------------|
    
    Eb| --------------------------------------------------------------------------|
    Bb| --------------------------------------------------------------------------|
    Gb| --------------------------------------------------------------------------|
    Db| --2-----2-----2-2------7^-------------------------------------------------|
    Ab| --2-----2-----2-2------7^-------------------------------------------------|
    Db| --2-----2-----2-2------7^-------------------------------------------------|
    
    Eb| ---------------------------------------------------------------------------|
    Bb| ---------------------------------------------------------------------------|
    Gb| ---------------------------------------------------------------------------|
    Db| --2-----2-----2-2----2-1-0----2-1-0----------------------------------------|
    Ab| --2-----2-----2-2----2-1-0----2-1-0----------------------------------------|
    Db| --2-----2-----2-2----2-1-0----2-1-0----------------------------------------|
    			(Let Last  

    Тональность:

    Нет текста!



    Назад
    Рекомендуем посмотреть другие песни исполнителя «Limp Bizkit»:

    • Комментарии Facebook ()
    • Комментарии ВКонтакте



    Добавить в Избранное Браузера
    Сохранить здесь Очистить


    x

    0


    +
    -

    +
    -

    -

    Авторизация





    Зарегистрироваться

    M

    Дата и время

    • 17:33:38
       

    Социальные ссылки


    Наши приложения

    • Muzbank App Play Market
    • Muzbank Amazon App