MUZBANK



A Most Complete Bank Of Music Information

МУЗЫКАЛЬНО-ИНФОРМАЦИОННЫЙ БАНК

Поиск по сайту







    LLimp Bizkit • Eat You Alive! (аккорды и текст - chords & lyrics)


    334

    Print

    Видео «Eat You Alive! (Limp Bizkit)»

    Видео клипы к песне подбираются автоматически сайтом youtube. Возможны некоторые несоответствия клипов песне.

    ↑ Спрятать рекламу ↑



    Download


    Intro
    (Guitarra FuLL!! distorcion)
    e|-----------------|-----------------|----------------|------------|
    b|-----------------|-----------------|----------------|------------|
    g|-----------------|-----------------|----------------|------------|
    d|-----------------|-----------------|----------------|------------|
    a|-----------------|-----------------|----------------|------------|
    c#---2-2-2/0-3-0-3-|---2-2-2/0-3-0-3-|--2-2-2/0-3-0-3-|--2-2-2-0-2-|!!
    
    (Entra bateria)
    Verso 1
    e|----------------|-----------------|----------------|-
    b|----------------|-----------------|----------------|-
    g|----------------|-----------------|----------------|-
    d|----------------|-----------------|----------------|-
    a|----------------|-----------------|----------------|-
    c#--2-2-2/0-3-0-3-|---2-2-2/0-3-0-3-|--2-2-2/0-3-0-3-|-
    
    |----------------|
    |----------------|
    |----------------|
    |----------------|
    |----------------|
    |--2-2-2/0-3-0-3-|!!
    
    (bajar distorcion)
    Verso 2
    (X2) ..???Heyyyyyy!! you...
    e|----------------|--------------|----------------|-----------|
    b|----------------|--------------|----------------|-----------|
    g|----------------|--------------|----------------|-----------|
    d|----------------|--------------|----------------|-----------|
    a|----------------|--------------|----------------|-----------|
    c#--2-2-2/0-3-0-3-|---2-2-2/0--2-|--2-2-2/0-3-0-3-|-2-2-2-0-2-|
    
    *[en el verso 3 hay 2 guitarra (creo) una..]*
    *[continua con el verso 2 y la otra verso 3]*
    
    Verso 3
    (X4)
    e|-----------------|-----------------|
    b|-----------------|-----------------|
    g|----8-8-8~~7-----|----8-8-8~~7-----|
    d|----8-8-8--8-----|-----------------|
    a|-----------------|-----------------|
    c#-----------------|-----------------|
    
    CORO(Guitarra FuLL!! distorcion)
    Verso 1(X2)....and eat you alivEEEEEEEE!!!!!!!!!!
    e-----------------|-----------------|----------------|---------------|
    b|----------------|-----------------|----------------|---------------|
    g|----------------|-----------------|----------------|---------------|
    d|----------------|-----------------|----------------|---------------|
    a|----------------|-----------------|----------------|---------------|
    c#--2-2-2/0-3-0-3-|---2-2-2/0-3-0-3-|--2-2-2/0-3-0-3-|-2-2-2/0-3-0-3-|!!
    
    luego.. Verso 2....Verso 3 ??CORO!!
    
    *[C# vuelve a E]*
    
    Verso 4 (X3)..I?m ZorrY.............. so zorry..
    e|---------------|------------|------------|----------------------|
    b|---------------|------------|------------|----------------------|
    g|---------------|------------|------------|-8-8-8-8-8-8-8-8-8-8--|!!
    d|--9-9-9-9-9-9--|--11-11-11--|--13-13-13!--|-8-8-8-8-8-8-8-8-8-8--|!!
    a|--9-9-9-9-9-9--|--11-11-11--|--13-13-13!--|-6-6-6-6-6-6-6-6-6-6--|!!
    E|--7-7-7-7-7-7--|---9--9--9--|--11-11-11!--|----------------------|
    
    e|---------------|------------|-------------|------|
    b|---------------|------------|-------------|------|
    g|---------------|------------|-------------|-8~---|
    d|--9-9-9-9-9-9--|--11-11-11--|--13-13-13!--|-8~---|
    a|--9-9-9-9-9-9--|--11-11-11--|--13-13-13!--|-6~---|
    E|--7-7-7-7-7-7--|---9--9--9--|--11-11-11!--|------|....
    
    (solo bajo)..
    
    +[hay muchas formas de hacer el verso 5,aqui tienes 2]*
    Verso 5-1 (Guitarra)
    (X3)
    e|---------7-----|--------7--------|-------7--------|---7------|
    b|-------7---7---|------7----------|-----7---7------|-7---6--4-|
    g|---------------|-----------------|----------------|----------|
    d|---------------|-----------------|----------------|----------|
    a|---------------|-----------------|----------------|----------|
    c#---------------|-----------------|----------------|----------|
    Verso 5-2 (Guitarra)
    (X3)
    e|---------------|-----------------|----------------|----------|
    b|--------12-----|--------12-------|------12--------|---12-----|
    g|----11-----11--|-----11----------|--11-----11-----|-11--11-9-|
    d|---------------|-----------------|----------------|----------|
    a|---------------|-----------------|----------------|----------|
    c#---------------|-----------------|----------------|----------|
    Verso 6
    (X8)
    e|-----------------|-----------------|
    b|-----0--0--------|----0---0--------|
    g|---4--4--4~~6----|--6---6---6~4----|
    d|-----------------|-----------------|
    a|-----------------|-----------------|
    c#-----------------|-----------------|
    
    luego..Verso 4(X3)..I?m ZorrY.............. so zorry..
    
    *[Guitarra FuLL!! distorcion]*
    
    Verso 2
    e|------------------|----------------|
    b|------------------|----------------|
    g|------------------|----------------|
    d|------------------|----------------|
    a|------------------|----------------|
    c#--?2-2-2/0-3-0-3!-|---?2-2-2/0--2!-|!!
    
    CORO
    (Guitarra FuLL!! distorcion)!!
    Verso 1....and eat you alivEEEEEEEE!!!!!!!!!!(and eat you alivE..)
    e|----------------|----------------|----------------|---------------|
    b|----------------|----------------|----------------|---------------|
    g|----------------|----------------|----------------|---------------|
    d|----------------|----------------|----------------|---------------|
    a|----------------|----------------|----------------|---------------|
    c#--2-2-2/0-3-0-3-|--2-2-2/0-3-0-3-|--2-2-2/0-3-0-3-|-2-2-2/0-3-0-3-|!!
    ...............and eat you alivEEEEEEEE!!!!!!!!!!(and eat you alivE..)
    e|----------------|----------------|----------------|---------------|
    b|----------------|----------------|----------------|---------------|
    g|----------------|----------------|----------------|---------------|
    d|----------------|----------------|----------------|---------------|
    a|----------------|----------------|----------------|---------------|
    c#--2-2-2/0-3-0-3-|--2-2-2/0-3-0-3-|--2-2-2/0-3-0-3-|-2-2-2/0-3-0-3-|!!
    ........and eat you alivE.
    e|----------------|------|
    b|----------------|------|
    g|----------------|------|------------*(fin de la cancion)*
    d|----------------|------|
    a|----------------|------|
    c#--2-2-2/0-3-0-3-|---2.-|
    

    Тональность:

    Нет текста!



    Назад
    Рекомендуем посмотреть другие песни исполнителя «Limp Bizkit»:

    • Комментарии Facebook ()
    • Комментарии ВКонтакте



    Добавить в Избранное Браузера
    Сохранить здесь Очистить


    x

    0


    +
    -

    +
    -

    -

    Авторизация





    Зарегистрироваться

    M

    Дата и время

    • 15:42:37
       

    Социальные ссылки


    Наши приложения

    • Muzbank App Play Market
    • Muzbank Amazon App