MUZBANK



A Most Complete Bank Of Music Information

МУЗЫКАЛЬНО-ИНФОРМАЦИОННЫЙ БАНК

Поиск по сайту







    LLimp Bizkit • Faith (аккорды и текст - chords & lyrics)


    499

    Print

    Видео «Faith (Limp Bizkit)»

    Видео клипы к песне подбираются автоматически сайтом youtube. Возможны некоторые несоответствия клипов песне.

    ↑ Спрятать рекламу ↑



    Download


    Intro:
    
     H(VII) (идёт такой проигрыш, не могу описать его, надо слушать)
    
    Verse:
    
    
                               H(VII)
    Well, I guess it would be nice,
                H(VII)
    If I could touch your body,
                     A(V)
    I know not everybody,
                        H(VII)
    Has got a body like me,
    But I gotta think twice,
    Before I give my heart away,
    And I know all the games you play,
    Cause I play them too,
    
    Prechorus:
    
    e|-----------------------------------------------------------|
    B|---------------------------------------------5-------------|
    G|-----8-------6-------7-------4------6----------------4---3-|
    D|-------9-------7-------8-------5------7--------6-------5---|
    A|---9-------7-------8-------5------7--------6-------5-------|
    E|-7-------5-------6-------3-------5-------4-------3---------|
    
    E|----------|
    B|---------5|
    G|-3h4p3-4--|
    D|----------|
    A|----------|
    E|----------|
    
    Oh, but I need some time off from that emotion,
    Time to pick my heart up off the floor,
    When that love comes down without devotion,
    Well it takes a strong man, baby, but I'm showing you that door
    
    
    Chorus:
    
    e|--------------------------|
    B|--------------------------|
    G|--------------------------|   x4
    D|-9-9--9-9--9-9--9-9-------|
    A|-9-9--9-9--9-9--9-9-------|
    E|-7-7--7-7--7-7--7-7--7h9p7|
    
    I gotta have faith
    
    Verse:
    
    Baby, I know you're asking me to stay,
    Saying please please please don't go away,
    Cause you're giving me the blues,
    Baby, you remind me of the words you say,
    Can't help but think of yesterday,
    And I know you would tie me down to the loverboy blues,
    
    Pre-Chorus:
    
    Before this river becomes an ocean,
    Before you pick my heart up off the floor,
    When that love comes down without devotion,
    Well, it takes a strong man baby but I'm showing you that door
    
    Chorus:
    
    I gotta have faith
    
    N.C.
    Get the fuck up!
    
    Chorus:
    
    I gotta have faith!
    

    Тональность:

    Нет текста!



    Назад
    Рекомендуем посмотреть другие песни исполнителя «Limp Bizkit»:

    • Комментарии Facebook ()
    • Комментарии ВКонтакте



    Добавить в Избранное Браузера
    Сохранить здесь Очистить


    x

    0


    +
    -

    +
    -

    -

    Авторизация





    Зарегистрироваться

    M

    Дата и время

    • 00:49:22
       

    Социальные ссылки


    Наши приложения

    • Muzbank App Play Market
    • Muzbank Amazon App