MUZBANK



A Most Complete Bank Of Music Information

МУЗЫКАЛЬНО-ИНФОРМАЦИОННЫЙ БАНК

Поиск по сайту







    LLimp Bizkit • Gold Cobra (аккорды и текст - chords & lyrics)


    1830

    Print

    Видео «Gold Cobra (Limp Bizkit)»

    Видео клипы к песне подбираются автоматически сайтом youtube. Возможны некоторые несоответствия клипов песне.

    ↑ Спрятать рекламу ↑



    Download


    Intro
    C#|-----------------------------------------|
    G#|-----------------------------------------|
    E |---------2-2-----------------------------|  X12
    B |---------2-2-----------------------------|
    F#|---------2-2-----------------------------|
    C#|--------------0h10h12h10h12-12-12-10h12--|
    
    Verse
    C#|-------------------------------------------|
    G#|-------------------------------------------|
    E |-------------------------------------------|  X4
    B |---------2--2*---2-2^-2-2^-2-2--5-5 5-5----|
    F#|---------2-2-----2-2^-2-2^-2-2--5-5^5-5----|
    C#|--------------------------------3-3 3-3----|
    
    Pre-Verse just repeat the intro
    
    Chorus
    C#|-------------------------------------------------------------|
    G#|-------------------------------------------------------------|
    E |-------------------------------------------------------------|
    B |---2-2-x-2-2-2----5-5 -5-5 -3-3 -3-3 ------------------------|
    F#|---2-2-x-2-2-2----5-5^-5-5^-3-3^-3-3^----7-7^-7---10-10^-10--|
    C#|---2-2-x-2-2-2----3-3 -3-3 -1-1 -1-1 ----5-5 -5---8 -8  -8 --|
    
    2nd time
    C#|---------------------------------------------------------------|
    G#|---------------------------------------------------------------|
    E |---------------------------------------------------------------|
    B |---2-2-x-2-2-2----5-5 -5-5 -3-3 -3-3 --------------------------|
    F#|---2-2-x-2-2-2----5-5^-5-5^-3-3^-3-3^----10-10^-10---13-13^-13-|
    C#|---2-2-x-2-2-2----3-3 -3-3 -1-1 -1-1 ----8 -8  -8 ---11-11 -11-|
    
    
    Waking up aggravated
     Stupid shit man I hate it
     Bitches lying bitches crying
     Suicidal get in line
     Gettin mine bouncin freaks
     Loosing sleep countin sheep
     Absolute cash and loot
     Men in black packin heat
     Born and blazing rotten raising
     Fingers up time to waive ‘em
     Show these players playin that they better get there ass to prayin
     There won’t be nothing but dice after the cut in the gut
     I am not like ‘em there gonna wish they never pushed my button
     The door is shutting and a knife will do you no good
     You gettin nothing while I rock here in Hollywood
     I’ll tell you something else you can take it to the bank
     I don’t give a fuck what none of y’all people think
     
     Holdin the gold it’s so gold it’s so golden y’all
     The Golden Cobra
     Holdin the gold it’s so gold it’s so golden y’all
     The Golden Cobra
     Holdin the gold it’s so gold it’s so golden y’all
     The Golden Cobra
     Holdin the gold it’s so gold it’s so golden y’all
     The Golden Cobra
     
     Feeling Korn going blind
     Free as hell doing time
     I’m insane can’t complain
     Flush you turds down the drain
     Down the hatch throwing craps
     Throwing matches on the gas
     Check the match, check the will
     Check the ride, paying bills
     Burning mouths wanna smile
     If you’re feeling versatile
     Versus why flipping bitches
     Grinding trucks skating ditches
     Hating all the Harley hating knife is slicing shit like bacon
     Sick and tired you is fired
     I’m the truth and you’s the liar
     The door is shutting and a knife will do you no good
     You getting nothing while I rock here in Hollywood
     
     I’ll tell you something else you can take it to the bank
     I don’t give a fuck what none ya’ll people think
     
     Holdin the gold it’s so gold it’s so golden y’all
     The Golden Cobra
     Holdin the gold it’s so gold it’s so golden y’all
     The Golden Cobra
     Holdin the gold it’s so gold it’s so golden y’all
     The Golden Cobra
     Holdin the gold it’s so gold it’s so golden y’all
     The Golden Cobra
     
     Oh ya listen what I’m telling you(I’m tellin you)
     There’s only one king on this hill it sure as hell ain’t you
     
     Holdin the gold it’s so gold it’s so golden y’all
     The Golden Cobra
     Holdin the gold it’s so gold it’s so golden y’all
     The Golden Cobra
     Holdin the gold it’s so gold it’s so golden y’all
     The Golden Cobra
     Holdin the gold it’s so gold it’s so golden y’all
     The Golden Cobra

    Тональность:

    Нет текста!



    Назад
    Рекомендуем посмотреть другие песни исполнителя «Limp Bizkit»:

    • Комментарии Facebook ()
    • Комментарии ВКонтакте



    Добавить в Избранное Браузера
    Сохранить здесь Очистить


    x

    0


    +
    -

    +
    -

    -

    Авторизация





    Зарегистрироваться

    M

    Дата и время

    • 15:42:06
       

    Социальные ссылки


    Наши приложения

    • Muzbank App Play Market
    • Muzbank Amazon App