MUZBANK



A Most Complete Bank Of Music Information

МУЗЫКАЛЬНО-ИНФОРМАЦИОННЫЙ БАНК

Поиск по сайту







    LLimp Bizkit • Hate Me (Mission Impossible II theme song) (аккорды и текст - chords & lyrics)


    274

    Print

    Видео «Hate Me (Mission Impossible II theme song) (Limp Bizkit)»

    Видео клипы к песне подбираются автоматически сайтом youtube. Возможны некоторые несоответствия клипов песне.

    ↑ Спрятать рекламу ↑



    Download


    INTRO:
    
    e|------------------------------------------|
    B|------------------------------------------|
    G|------------------------------------------| Repeat 8X
    D|----------------4--6p4--------------------|
    A|-6--6--6--6-6-----------6--6--6--6-6--4-5-|
    E|------------------------------------------|
    
    VERSE:
    
    e|---14p11---14p11---14p11---14p11-------------------|
    B|---------11----------------------12-12-12-11-11-11-|
    G|-----------------14------13------------------------| Repeat 2X
    D|---------------------------------------------------|
    A|---------------------------------------------------|
    E|-(0:39)--------------------------------------------|
    
    Riff 1:
    
    e|----------------------------------------------|
    B|----------------------------------------------|
    G|----------------------------------------------| Repeat 4X
    D|--------------------4-6-----------------------|
    A|---4h6-4h6-4h6-4h6-------4h6-4h6-4h6-4h6--4-5-|
    E|-(1:26)---------------------------------------|
    
    CHORUS:
    
    e|-------------------------------------------------|
    B|-----------------------7-9-----------------------|
    G|---6/8--6/8--6/8--6/8--6-8-6/8--6/8--6/8-6/8-6-7-| Repeat 2X
    D|---6/8--6/8--6/8--6/8--4-6-6/8--6/8--6/8-6/8-6-7-|
    A|---4/6--4/6--4/6--4/6------4/6--4/8--4/6-4/6-4-5-|
    E|-(1:46)------------------------------------------|
    
    e|--------------------------------------------------|
    B|------------------------7-9-----------------------|
    G|-----8----8----8----8---6-8----8---8---8----8-6-7-| Repeat 2X
    D|-----8----8----8----8---4-6----8---8---8----8-6-7-|
    A|---X-6--X-6--X-6--X-6--------X-6-X-6-X-6--X-6-4-5-|
    E|-(1:55)-------------------------------------------|
    
    e|--------------------------|
    B|----------7-9-------------|
    G|----8-8---6-8---8-8---6-7-| Repeat 2X
    D|----8-8---4-6---8-8---6-7-|
    A|----6-6---------6-6---4-5-|
    E|-(3:30)-------------------|
    
    Riff 2:
    
    e|---------------------------|            e|-------------------|
    B|---------------------------|            B|-------------------|
    G|---------------------------| Repeat 7X  G|-------------------|
    D|------------4-6------------|            D|----------4-6------|
    A|----6--6-6------6--6-6-4-5-|            A|----6--6-------6~~-|
    E|-(3:49)--------------------|            E|-(4:11)------------|
          Now...  I... Know... Why...
    
    [Repeat second verse 4X]
    [Ending same as intro,repeat 4X]
    

    Тональность:

    Нет текста!



    Назад
    Рекомендуем посмотреть другие песни исполнителя «Limp Bizkit»:

    • Комментарии Facebook ()
    • Комментарии ВКонтакте



    Добавить в Избранное Браузера
    Сохранить здесь Очистить


    x

    0


    +
    -

    +
    -

    -

    Авторизация





    Зарегистрироваться

    M

    Дата и время

    • 21:20:32
       

    Социальные ссылки


    Наши приложения

    • Muzbank App Play Market
    • Muzbank Amazon App