MUZBANK



A Most Complete Bank Of Music Information

МУЗЫКАЛЬНО-ИНФОРМАЦИОННЫЙ БАНК

Поиск по сайту







    LLimp Bizkit • Take A Look Around (аккорды и текст - chords & lyrics)


    463

    Print

    Видео «Take A Look Around (Limp Bizkit)»

    Видео клипы к песне подбираются автоматически сайтом youtube. Возможны некоторые несоответствия клипов песне.

    ↑ Спрятать рекламу ↑



    Download



    intro:
                               (Fill.1)
    (Gtr.1)(Acous.)
       Em             G             C                D
    E|----------------------------|-----------------------------|
    B|----------------------------|-----------------------------|
    G|----------0-2^0-------------|-----------0-2^0-------------|
    D|-2-2-2--2-------2-2-2-2-0-1-|2-2-2-2--2-------2-2-2-2-0-1-|
    A|----------------------------|-----------------------------|
    E|----------------------------|-----------------------------|
       Em               G             C                D
    E|-----------------------------|-------------------------------|
    B|-----------------------------|-------------------------------|
    G|-----------0-2^0-------------|-----------0-2^0---------------|
    D|-2-2-2-2-2-------2-2-2-2-0-1-|2-2-2-2--2-------2-2-2-2-0-1-2-|
    A|-----------------------------|-------------------------------|
    E|-----------------------------|-------------------------------|
    
                              (Fill.2)
    
    (Gtr.1)(Acous.)
      Em              G              C                D
    E|----------------------------|-----------------------------|
    B|----------------------------|-----------------------------|
    G|----------0-2^0-------------|-----------0-2^0-------------|
    D|-2-2-2--2-------2-2-2-2-0-1-|2-2-2-2--2-------2-2-2-2-0-1-|
    A|----------------------------|-----------------------------|
    E|----------------------------|-----------------------------|
    Bass & Sintezator
    G|----------------------------|--3----------------5---------|
    D|-2--------------5-----------|-----------------------------|
    
    (Gtr.1)(Acous.)
      Em               G              C                D
    E|-----------------------------|-------------------------------|
    B|-----------------------------|-------------------------------|
    G|-----------0-2^0-------------|-----------0-2^0---------------|
    D|-2-2-2-2-2-------2-2-2-2-0-1-|2-2-2-2--2-------2-2-2-2-0-1-2-|
    A|-----------------------------|-------------------------------|
    E|-----------------------------|-------------------------------|
    Bass & Sintezator
    G|-----------------------------|--3----------------5-----------|
    D|-2---------------5-----------|-------------------------------|
    
    Verse.1(Fill.3)
    
    (Gtr.1)(Acous.)
       Em
        All the teachin? in da world today
    E|-15^12----|
    B|-------12-|
             G
    All the little girls fillin? up da world today
    E|-15^12----|
    B|-------11-|
              C
    When the good comes to bad, the bad comes to good
    E|-15^12----|
    B|-------10-|
         D
    But I?m a live my life like i should
    E|-15^12--------------|
    B|-------13--12-12-12-|
    
       Em
        Now da critics wanna hit it
    E|-15^12----|
    B|-------12-|
          G
    This hit? How we did it, just because they don?t get it
    E|-15^12----|
    B|-------11-|
          C
    But I?ll stay fitted, new era commited
    E|-15^12----|
    B|-------10-|
          D
    Now this red cap gets a rap from these critics
    E|-15^12--------------|
    B|-------13--12-12-12-|
    
    (Fill.2)
    
    But do we always gotta cry
    Do we always gotta live inside a lie
    Life?s just a blast cuz its movin? really fast
    So ya better stay on top or life?ll kick you in the ass
    
    (Fill.3)
    
    Follow me into a solo
    Remember that, kid, so whatcha wanna do
    And where ya gonna run when your stari?n
    down the cable of my mic
    Pointed at yo grill like a gun
    
    Limp Bizkit is rockin? the set
    It?s like russian roulette when you?re placin? your bet
    So don?t be upset when you?re broke and you?re done
    Cuz I?m a be the one till I jet
    
    Chorus:(fill.4)
    
    Gtr.1(Distortion)
       know why you wanna hate me     know why you wanna hate me
    A|--------------------------|------------------------------| |
    E|--0^2--0^2--0^2---0^2-5-7-|--0^2--0^2--0^2----0^2--0--1--| |
                                                                 |x2
    know why you wanna hate me Cuz hate is all the world has     |
    even seen lately                                             |
    A|--------------------------|------------------------------| |
    E|-0^2--0^2--0^2--0^2--5--7-|-0^2--0^2--0^2---0^2----0---1-| |
    
    (Fill.5)
    
    Gtr.1(Distortion)
    A|--0^2--0^2--0^2--0^2--5--7-|-0^2--0^2--0^2--0^2--0--1-| |
    E|--0^2--0^2--0^2--0^2--5--7-|-0^2--0^2--0^2--0^2--0--1-| | x2
    Bass                                                      |
    D|--0^2--0^2--0^2--0^2--5--7-|-0^2--0^2--0^2--0^2--0--1-| |
    
    Gtr.1(Distortion)
    A|--x-2--x-2--x-2--x-2--5--7-|-x-2--x-2--x-2--x-2--0--1-| |
    E|--x-2--x-2--x-2--x-2--5--7-|-x-2--x-2--x-2--x-2--0--1-| | x2
    Bass                                                      |
    D|--0^2--0^2--0^2--0^2--5--7-|-0^2--0^2--0^2--0^2--0--1-| |
    
    (Fill.2)
    
    Verse.2(Fill.3)(no drums & Bass)Gtr.1 & Sintezator
    
    Does anybody really know the secret
    Or the combination for this life and where they keep it
    It?s kinda sad when you don?t know the meaning
    But everything happens for a reason
    
    (Fill.3)
    
    I don?t even know what i should say
    Cuz I?m an idiot, a loserA microphone abuser
    I analyze every second I exist
    Beatin? up my mind every second with my fist
    
    And everybody wanna run
    Everybody wanna hide from da gun
    You can dig a rat through this life if you want
    But you can?t dig the edge off a knife (no sir)
    
    And now you want your money back
    But you?re denied, cuz your brain?s fried from the sack
    And there aint nothin? i could do
    Cuz life is a lesson, you?ll learn it when you?re through
    
    Chorus:(fill.4)
           (Fill.5)
    
                                (Fill.6)
    Gtr.1(Distortion)
    A|--2-2----5--7--2-2----0--1--|--2-2----5--7--2-2----0--1--|
    E|--2-2----5--7--2-2----0--1--|--2-2----5--7--2-2----0--1--|
    Bass
    D|--2-2----5--7--2-2----0--1--|--2-2----5--7--2-2----0--1--|
    
                                (Fill.7)
    Bass & Drums
    D|--2-2----5--7--2-2----0--1--|--2-2----5--7--2-2----0--1--| |x2
    
                                (Fill.8)
    
         Now...       I...            know...      why...
    Bass
    D|--2-2----5--7--2-2----0--1--|--2-2----5--7--2-2----0--1--|
    Gtr.1(Acous.)
    D|---------5-7^5--------------|---------5-7^5--------------|
    A|--7-7----------7-7----5--6--|--7-7----------7-7----5--6--|
    
         Now...       I...        know...    why
    Bass                         (now I know why you wanna hate me)
    D|--2-2----5--7--2-2--0--1-|--2-2--5--7--2-2----0--1--|
    Gtr.1
    D|---------5-7^5-----------|-------5-7^5--------------|
    A|--7-7----------7-7--5--6-|--7-7--------7-7----5--6--|
    
        Now...       I...            know...      why...
    Bass
    D|--2-2----5--7--2-2----0--1--|--2-2----5--7--2-2----0--1-| |
    Gtr.1(Distortion)                                           |x2
    D|---------5-7^5--------------|---------5-7^5-------------| |
    A|--7-7----------7-7----5--6--|--7-7----------7-7----5--6-| |
    
                                (Fill.9)
    Gtr.1(Distortion)
         know why you wanna hate me     know why you wanna hate me
    A|--0^2--0^2--0^2----0^2--5--7--|--0^2--0^2--0^2----0^2--0--1--|
    E|--0^2--0^2--0^2----0^2--5--7--|--0^2--0^2--0^2----0^2--0--1--|
    Bass
    D|--0^2--0^2--0^2----0^2--5--7--|--0^2--0^2--0^2----0^2--0--1--|
    
    know why you wanna hate me Cuz hate is all the world has even
    seen lately
    A|-0^2--0^2--0^2----0^2--5--7-|-0^2--0^2--0^2---0^2----0----1--|
    E|-0^2--0^2--0^2----0^2--5--7-|-0^2--0^2--0^2---0^2----0----1--|
    Bass
    D|-0^2--0^2--0^2----0^2--5--7-|-0^2--0^2--0^2---0^2----0----1--|
    
    Gtr.1(Distortion)
    A|-x-2--x-2--x-2--x-2--5--7-|-x-2--x-2--x-2----x-2--0--1-|  |
    E|-x-2--x-2--x-2--x-2--5--7-|-x-2--x-2--x-2----x-2--0--1-|  | x2
    Bass                                                        |
    D|-0^2--0^2--0^2--0^2--5--7-|-0^2--0^2--0^2----0^2--0--1-|  |
    
    outro:(Fill.2)
    
    (*)примичание:
    
    6-ая струна(нота "ми") у гитары опускается до ноты "ре" и так
    же на басу опускается
    4-ая(или 5-ая или 6-ая) струна, и тогда аккорды на гитаре будут
    зажиматься вот так:
    
            Em      G      A      D     Eb
    (E)  1|-----||-----||-----||-----||-----|
    (H)  2|-----||-----||-----||-----||-----|
    (G)  3|-----||-----||-----||-----||-----|
    (D)  4|-(2)-||-(5)-||-(7)-||-(0)-||-(1)-|
    (A)  5|--2--||--5--||--7--||--0--||--1--|
    (D)  6|--2--||--5--||--7--||--0--||--1--|
    
     а не так как при обычном строе гитары:
    
            Em      G      A      D     Eb
    (E)  1|-----||-----||-----||-----||-----|
    (H)  2|-----||-----||-----||-----||-----|
    (G)  3|-----||-----||-----||-(7)-||-(8)-|
    (D)  4|-(2)-||-(5)-||-(7)-||--7--||--8--|
    (A)  5|--2--||--5--||--7--||--5--||--6--|
    (E)  6|--0--||--3--||--5--||-----||-----|
    

    Тональность:

    Нет текста!



    Назад
    Рекомендуем посмотреть другие песни исполнителя «Limp Bizkit»:

    • Комментарии Facebook ()
    • Комментарии ВКонтакте



    Добавить в Избранное Браузера
    Сохранить здесь Очистить


    x

    0


    +
    -

    +
    -

    -

    Авторизация





    Зарегистрироваться

    M

    Дата и время

    • 13:14:30
       

    Социальные ссылки


    Наши приложения

    • Muzbank App Play Market
    • Muzbank Amazon App