MUZBANK



A Most Complete Bank Of Music Information

МУЗЫКАЛЬНО-ИНФОРМАЦИОННЫЙ БАНК

Поиск по сайту







    LLimp Bizkit • The One (аккорды и текст - chords & lyrics)


    275

    Print

    Видео «The One (Limp Bizkit)»

    Видео клипы к песне подбираются автоматически сайтом youtube. Возможны некоторые несоответствия клипов песне.

    ↑ Спрятать рекламу ↑



    Download



      Verse/Intro             this leads to verse after intro
    E|------------------------|---|
    B|------------------------|---|
    G|------9-xxxx----9-8---8-|-0-|
    D|---11---xxxx-11-----9---|-9-|
    A|-9------xxxx------------|-9-|
    E|------------------------|-7-|
    
      Chorus                  leads to verse
    E|------------------------|--------|
    B|------------------------|--------|
    G|-----------9-9-9-9/11---|-11-9-0-|
    D|-9-7-6-----9-9-9-9/11---|-11-9-9-|
    A|-------7-9-7-7-7-7/9----|-9--7-9-|
    E|------------------------|------7-|
    
      Bridge (Play progression of three last chords a couple times)
    E|------------|
    B|------------|
    G|-11--11-9---|
    D|-11--11-9-9-|
    A|-9---9--7-9-|
    E|----------7-|
    
      Bridge continued (Play distorted without effects)
    E|----------------------|
    B|----------------------|
    G|-----------9-9-9-9/11-|
    D|-9-7-6-----9-9-9-9/11-|
    A|-------7-9-7-7-7-7/9--|
    E|----------------------|
    
    Weird bit
    E|------------------------------|
    B|------------------------------|
    G|------------------------------|
    D|------------------------------|
    A|-7---5--4---5----7---5--4---2-|
    E|------------------------------|
    

    Тональность:

    Нет текста!



    Назад
    Рекомендуем посмотреть другие песни исполнителя «Limp Bizkit»:

    • Комментарии Facebook ()
    • Комментарии ВКонтакте



    Добавить в Избранное Браузера
    Сохранить здесь Очистить


    x

    0


    +
    -

    +
    -

    -

    Авторизация





    Зарегистрироваться

    M

    Дата и время

    • 21:29:45
       

    Социальные ссылки


    Наши приложения

    • Muzbank App Play Market
    • Muzbank Amazon App