MUZBANK



A Most Complete Bank Of Music Information

МУЗЫКАЛЬНО-ИНФОРМАЦИОННЫЙ БАНК

Поиск по сайту







    LLink 80 • Turn It Around (аккорды и текст - chords & lyrics)


    174

    Print

    Видео «Turn It Around (Link 80)»

    Видео клипы к песне подбираются автоматически сайтом youtube. Возможны некоторые несоответствия клипов песне.

    ↑ Спрятать рекламу ↑



    Download


     
    
    
    SONG: TURN IT AROUND
    BAND: LINK 80
    TABBED BY: BEN MEYER benm@oakweb.com
    
    
    VERSE:
    
    G:-----------3-5------
    D:----------------5-3-
    A:-----3-5------------    (PLAY VERY FAST)
    E:-3-5----------------
    
    
    CHORUS:
    
    G:-----3-5-----3-5-----------------
    D:---------------------------------
    A:-7-5-----5-3-----5-5-5-5-3-3-3-3-
    E:---------------------------------
    
    
    LITTLE BASS SOLO THINGY:
    
    G:-----------5-5-5-5-5----------------
    D:-5-5-5-5-5-----------5-5-5-5-5------
    A:--------------------------------5-3-
    E:------------------------------------
    
    
    ORGAN SOLO:
    
    G:-------------2-3-5-5-5------------------------------------5-
    D:---------2-3-----------3-5--------------------------2-3-5---
    A:-3-3-3-5-------------------5-5-3-3-2------------3-5---------
    E:--------------------------------------3-3-3-5-5-------------
     

    Тональность:

    Нет текста!



    Назад
    Рекомендуем посмотреть другие песни исполнителя «Link 80»:

    • Комментарии Facebook ()
    • Комментарии ВКонтакте



    Добавить в Избранное Браузера
    Сохранить здесь Очистить


    x

    0


    +
    -

    +
    -

    -

    Авторизация





    Зарегистрироваться

    M

    Дата и время

    • 23:43:33
       

    Социальные ссылки


    Наши приложения

    • Muzbank App Play Market
    • Muzbank Amazon App