MUZBANK



A Most Complete Bank Of Music Information

МУЗЫКАЛЬНО-ИНФОРМАЦИОННЫЙ БАНК

Поиск по сайту







    LLinkin Park • Points Of Authority (аккорды и текст - chords & lyrics)


    345

    Print

    Видео «Points Of Authority (Linkin Park)»

    Видео клипы к песне подбираются автоматически сайтом youtube. Возможны некоторые несоответствия клипов песне.

    ↑ Спрятать рекламу ↑



    Download


    Основной риф:
    E|-------------------------------------------|
    B|-------------------------------------------|
    G|--7--7----7-----8-8------7------5--------8-|
    D|--7--7----7-----8-8------7------5--------8-|
    A|--7--7----7-----8-8------7------5--------8-|
    E|--------0-----0-------0------0--------0----|
    
    (Перед припевом последние три аккорда икраются без баса Ми и
    медиатора, только скольжением пальца по грифу.
    
    Припев:
    E|------------------------------------|
    B|------------------------------------|
    G|----7--8--7--8--7--8--7--8----7-5-8-|
    D|----7--8--7--8--7--8--7--8----7-5-8-|
    A|----7--8--7--8--7--8--7--8----7-5-8-|
    E|------------------------------------|
    (Припев длится 8 тактов, при этом на каждый новый такт играется
    один из двух аккордов. Лишь в самом конце припева звучит
    ключевая последовательность аккордов, вводящая нас в куплет.)
    
    Forfeit the game / Before somebody else
    Takes you out of the frame / Puts your name to shame
    Cover up your face / You can't run the race
    The pace is too fast / You just can't last
    You love the way I look at you
    While taking pleasure in the awful things you put me through
    You take away if I give in
    My life
    My pride is broken
    You love the things I say I'll do-
    The way I'll hurt myself again just to get back at you
    You take away when I give in / my life
    My pride is broken
    You like to think you're never wrong
    You want to act like you're someone
    You want someone to hurt like you
    You want to share what you've been through
    (You live what you learn)
    

    Тональность:

    Нет текста!



    Назад
    Рекомендуем посмотреть другие песни исполнителя «Linkin Park»:

    • Комментарии Facebook ()
    • Комментарии ВКонтакте



    Добавить в Избранное Браузера
    Сохранить здесь Очистить


    x

    0


    +
    -

    +
    -

    -

    Авторизация





    Зарегистрироваться

    M

    Дата и время

    • 23:17:06
       

    Социальные ссылки


    Наши приложения

    • Muzbank App Play Market
    • Muzbank Amazon App