MUZBANK



A Most Complete Bank Of Music Information

МУЗЫКАЛЬНО-ИНФОРМАЦИОННЫЙ БАНК

Поиск по сайту







    LLinkin Park • Somewhere I Belong (аккорды и текст - chords & lyrics)


    488

    Print

    Видео «Somewhere I Belong (Linkin Park)»

    Видео клипы к песне подбираются автоматически сайтом youtube. Возможны некоторые несоответствия клипов песне.

    ↑ Спрятать рекламу ↑



    Download


    Бас и гитара настроены в ре(D).!!!!
    
    Вступление:
    
    Гитара и бас играют вместе. На 8раз бас замолкает.
    
    Гитара:
    
    E|--6--------|
    B|-----6-9-6-|
    G|-----------|
    D|-8---------| x 8 раз
    A|-----------|
    D|-----------|
    
    Бас:
      Bb                 F#
    G|-----------------|-----------------|
    D|-----------------|-----------------|
    A|-1-1-1-1-1-1-1-1-|-----------------|
    D|-----------------|-4-4-4-4-4-4-4-4-|
    
      G#               Eb
    G|-----------------|-----------------|
    D|-----------------|-----------------|
    A|-----------------|-----------------|
    E|-6-6-6-6-6-6-6-6-|-1-1-1-1-1-1-1-1-|
    
      Bb                 F#               G#
    G|-----------------|-----------------|-----------------|
    D|-----------------|-----------------|-----------------|
    A|-1-1-1-1-1-1-1-1-|-----------------|-----------------|
    D|-----------------|-4-4-4-4-4-4-4-4-|-6-6-6-6-6-6-6-6-|
    
    Рифф:
    
    E|---------|---------|---------|---------|
    B|---------|---------|---------|---------|
    G|-3-3-3-3-|-6-6-6-6-|-3-3-3-3-|-3-3-3-3-|
    D|-3-3-3-3-|-6-6-6-6-|-4-4-4-4-|-1-1-1-1-|
    A|-1-1-1-1-|-4-4-4-4-|-1-1-1-1-|-1-1-1-1-|
    D|---------|---------|---------|---------|
    
    E|---------|---------|---------|---------|
    B|---------|---------|---------|---------|
    G|-3-3-3-3-|-6-6-6-6-|---------|-3-3-3-3-|
    D|-3-3-3-3-|-6-6-6-6-|-6-6-6-6-|-1-1-1-1-|
    A|-1-1-1-1-|-4-4-4-4-|-3-3-3-3-|-1-1-1-1-|
    D|---------|---------|-6-6-6-6-|---------|
    
    Бас:
    
      Bb                Db
    G|-----------------|-----------------|
    D|-----------------|-----------------|
    A|-1-1-1-1-1-1-1-1-|-4-4-4-4-4-4-4-4-|
    D|-----------------|-----------------|
    
      F#                Eb
    G|-----------------|-----------------|
    D|-----------------|-----------------|
    A|-----------------|-----------------|
    E|-4-4-4-4-4-4-4-4-|-1-1-1-1-1-1-1-1-|
    
      Bb                Db
    G|-----------------|-----------------|
    D|-----------------|-----------------|
    A|-1-1-1-1-1-1-1-1-|-4-4-4-4-4-4-4-4-|
    D|-----------------|-----------------|
    
      G#                Bb
    G|-----------------|-----------------|
    D|-----------------|-----------------|
    A|-----------------|-1-1-1-1-1-1-1-1-|
    E|-6-6-6-6-6-6-6-6-|-----------------|
    
    Куплет:
    
    Гитара: Тоже самое что и в вступлении.
    
    Бас:
      Bb                 F#
    G|-----------------|-----------------|
    D|-----------------|-----------------|
    A|-1-1-1-1-1-1-1-1-|-----------------|
    D|-----------------|-4-4-4-4-4-4-4-4-|
    
      G#               Eb
    G|-----------------|-----------------|
    D|-----------------|-----------------|
    A|-----------------|-----------------| x 4 раза
    E|-6-6-6-6-6-6-6-6-|-1-1-1-1-1-1-1-1-|
    
    Припев :
    
    E|---------|---------|---------|---------|
    B|---------|---------|---------|---------|
    G|-3-3-3-3-|-6-6-6-6-|-3-3-3-3-|-3-3-3-3-|
    D|-3-3-3-3-|-6-6-6-6-|-4-4-4-4-|-1-1-1-1-|
    A|-1-1-1-1-|-4-4-4-4-|-1-1-1-1-|-1-1-1-1-|
    D|---------|---------|---------|---------|
    
    E|---------|---------|---------|---------|
    B|---------|---------|---------|---------|
    G|-3-3-3-3-|-6-6-6-6-|---------|-3-3-3-3-|
    D|-3-3-3-3-|-6-6-6-6-|-6-6-6-6-|-1-1-1-1-|
    A|-1-1-1-1-|-4-4-4-4-|-3-3-3-3-|-1-1-1-1-|
    D|---------|---------|-6-6-6-6-|---------|
    
    Бас:
    
      Bb                Db
    G|-----------------|-----------------|
    D|-----------------|-----------------|
    A|-1-1-1-1-1-1-1-1-|-4-4-4-4-4-4-4-4-|
    D|-----------------|-----------------|
    
     F#                Eb
    G|-----------------|-----------------|
    D|-----------------|-----------------|
    A|-----------------|-----------------|
    E|-4-4-4-4-4-4-4-4-|-1-1-1-1-1-1-1-1-|
    
      Bb                Db
    G|-----------------|-----------------|
    D|-----------------|-----------------|
    A|-1-1-1-1-1-1-1-1-|-4-4-4-4-4-4-4-4-|
    D|-----------------|-----------------|
    
     G#                Bb
    G|-----------------|-----------------|
    D|-----------------|-----------------|
    A|-----------------|-1-1-1-1-1-1-1-1-|
    E|-6-6-6-6-6-6-6-6-|-----------------|
    
    Куплет 1
    
    (When this began)
    I had nothing to say
    And I get lost in the nothingness inside of me
    (I was confused)
    And I live it all out to find, but
    I'm not the only person with these things in mind
    (Inside of me)
    But all that they can see the words revealed
    Is the only real thing that i got left to feel
    (Nothing to lose)
    Just stuck hollow and alone
    And the fault is my own, and the fault is my own
    
    Припев:
    
    I wanna heal, I wanna feel, What I thought was never real
    I wanna let go of the pain I've felt so long
    Erase all the pain til' it's gone
    I wanna heal, I wanna feel, like I'm close to something real
    I wanna find something I've wanted all along
    Somewhere I belong
    
    Куплет 2
    
    And I got nothing to say
    I can't believe I didn't fall right down on my face
    (I was confused)
    Look at everywhere only to find
    It is not the way I had imagined it all in my mind
    (So what am I)
    What do I have but negativity
    Cuz I can't trust no one by the way everyone is looking at me
    (Nothing to lose)
    Nothing to gain, hollow and alone
    And the fault is my own, and the fault is my own
    
    Припев:
    
    Куплет 3
    
    I will never know myself until I do this on my own
    Cuz i will never feel anything else until my wounds are healed
    I will never be anything til' I break away from me
    I will break away. I'll find myself today
    
    Припев:
    

    Тональность:

    Нет текста!



    Назад
    Рекомендуем посмотреть другие песни исполнителя «Linkin Park»:

    • Комментарии Facebook ()
    • Комментарии ВКонтакте



    Добавить в Избранное Браузера
    Сохранить здесь Очистить


    x

    0


    +
    -

    +
    -

    -

    Авторизация





    Зарегистрироваться

    M

    Дата и время

    • 01:09:48
       

    Социальные ссылки


    Наши приложения

    • Muzbank App Play Market
    • Muzbank Amazon App