MUZBANK



A Most Complete Bank Of Music Information

МУЗЫКАЛЬНО-ИНФОРМАЦИОННЫЙ БАНК

Поиск по сайту







    LLinkin Park • Somewhere I Belong (ver 12) (аккорды и текст - chords & lyrics)


    378

    Print

    Видео «Somewhere I Belong (ver 12) (Linkin Park)»

    Видео клипы к песне подбираются автоматически сайтом youtube. Возможны некоторые несоответствия клипов песне.

    ↑ Спрятать рекламу ↑



    Download


     
    
    
    -----------------------------------------------------------------------------
    			Somewhere I Belong - Linkin Park
    -----------------------------------------------------------------------------
    Tabbed by: frgt10_soldier
    Email: mel_stud11@hotmail.com
    
    Im pretty srue this tab is 100% correct but there could be errors.
    But i must say it sounds very accurate to the original song. There are 4
    guitars in this song. If you know how this song goes you wont have a problem
    knowing what guitars are playing togethor. just listen to the song
    and go through the tab at the same time. youll see what i mean. 
    Anyways, Enjoy!
    
    Tuning: standard
    intro: 
    Gtr1
    e|---------------------------------------------------------------|
    B|-3-3-3--3--------------------0----0----------------------------|
    G|-4-4-4--4--4-4--4--6-6-6--6--0----0----------------------------|
    D|-4-4-4--4--5-5--5--7-7-7--7--0h2--2----------------------------|x2
    A|-2-2-2--2--5-5--5--7-7-7--7--0h2--2----------------------------|
    E|-----------3-3--3--5-5-5--5--0----0----------------------------|
    Gtr1								     
    e|---------------------------------------------------------------|
    B|-3-3-3--3--------------------0-----0---------------------------|   
    G|-4-4-4--4--4-4--4--6-6-6--6--0-----0---------------------------|
    D|-4-4-4--4--5-5--5--7-7-7--7--0-h2--2---------------------------|x2
    A|-2-2-2--2--5-5--5--7-7-7--7--0-h2--2---------------------------|
    E|-----------3-3--3--5-5-5--5--0-----0---------------------------|
    Gtr2
    e|---------------------------------------------------------------|
    B|---------10------------10------------10------------10----------|
    G|---11-------11---11-------11---11-------11---11----------------|x2
    D|-9-----9-------9-----9-------9-----9-------9-----9-------------|
    A|---------------------------------------------------------------|
    E|---------------------------------------------------------------|
    Gtr3 (play on second time)
    e|---------------------------------------------------------------|
    B|---------------------------------------------------------------|
    G|-11-----------------------(11)---------------------------------|
    D|-9------------------------(9)----------------------------------|
    A|---------------------------------------------------------------|
    E|---------------------------------------------------------------|
    Gtr3
    e|---------------------------------------------------------------|
    B|---------------------------------------------------------------|
    G|---------------------------------------------------------------|
    D|-4-4-4-4-4-4-4--7--7-7-7-7-12-12-12-12-12-12-12-9-9-9--9-9-----|
    A|-2-2-2-2-2-2-2--5--5-5-5-5-10-10-10-10-10-10-10-7-7-7--7-7-----|
    E|-2-2-2-2-2-2-2--5--5-5-5-5-10-10-10-10-10-10-10-7-7-7--7-7-----|
    Gtr4
    e|---------------------------------------------------------------|
    B|---------------------------------------------------------------|
    G|-8-8-8-8-8--8-8-9-9-9-9-9-9-11-11-11-11-11--11-9-9-9-9-9-9-----|
    D|-x-x-x-x-x--x-x-x-x-x-x-x-x-x--x--x--x--x---x--x-x-x-x-x-x-----|
    A|-6-6-6-6-6--6-6-7-7-7-7-7-7-9--9--9--9--9---9--7-7-7-7-7-7-----|
    E|---------------------------------------------------------------|
    Gtr3
    e|---------------------------------------------------------------|
    B|---------------------------------------------------------------|
    G|---------------------------------------------------------------|
    D|-4-4-4-4-4-4-4--7--7-7-7-7-7-7-7-7-7-7-7-2-2-2-2-2--2----------|
    A|-2-2-2-2-2-2-2--5--5-5-5-5-5-5-5-5-5-5-5-2-2-2-2-2--2----------|
    E|-2-2-2-2-2-2-2--5--5-5-5-5-5-5-5-5-5-5-5-0-0-0-0-0--0----------|
    Gtr4
    e|---------------------------------------------------------------|
    B|---------------------------------------------------------------|
    G|-8--8-8-8--8-8-9-9-9-9-9-9-6-6-6-6-6-6-4-4-4-4-4-4-4-4---------|
    D|-x--x-x-x--x-x-x-x-x-x-x-x-x-x-x-x-x-x-x-x-x-x-x-x-x-x---------|
    A|-6--6-6-6--6-6-7-7-7-7-7-7-4-4-4-4-4-4-2-2-2-2-2-2-2-2---------|
    E|---------------------------------------------------------------|
    Gtr1
    e|---------------------------------------------------------------|
    B|-3-3-3--3--------------------0----0----------------------------|
    G|-4-4-4--4--4-4--4--6-6-6--6--0----0----------------------------|
    D|-4-4-4--4--5-5--5--7-7-7--7--0h2--2----------------------------|
    A|-2-2-2--2--5-5--5--7-7-7--7--0h2--2----------------------------|
    E|-----------3-3--3--5-5-5--5--0----0----------------------------|
    Gtr4
    e|---------------------------------------------------------------|
    B|---------------------------------------------------------------|
    G|-4-----------------------(4)-----------------------------------|
    D|-x-------------------------------------------------------------|
    A|-2-----------------------(2)-----------------------------------|
    E|---------------------------------------------------------------|
    
    Verse:
    Gtr1
    e|--------------------------------------|  |---------------------|
    B|-3--3-3-3--------------------0----0-0-|  |-----------0-----0-0-|
    G|-4--4-4-4--4-4--4--6-6-6--6--0----0-0-|  |-6-6-6--6--0-----0-0-|
    D|-4--4-4-4--5-5--5--7-7-7--7--0h2--2-2-|x3|-7-7-7--7--0-h2--2-2-|
    A|-2--2-2-2--5-5--5--7-7-7--7--0h2--2-2-|  |-7-7-7--7--0-h2--2-2-|
    E|-----------3-3--3--5-5-5--5--0----0-0-|  |-5-5-5--5--0-----0-0-|
    
    Gtr2
    e|---------------------------------------------------------------|
    B|---------10------------10------------10-----------10-----------|
    G|---11-------11---11-------11---11-------11---11------11--------|
    D|-9-----9-------9-----9-------9-----9-------9----9--------------|x4
    A|---------------------------------------------------------------|
    E|---------------------------------------------------------------|
    Gtr4 (play near the end of the 4th repeat)
    e|---------------------------------------------------------------|
    B|---------------------------------------------------------------|
    G|---------------------------------------------------------------|
    D|---------------------------------------------------------------|
    A|---------------------------------------------------------------|
    E|-------------------------------------[7][7][7][7][7][7][7][7]--|
    
    Chorus:
    Gtr3
    e|---------------------------------------------------------------|
    B|---------------------------------------------------------------|
    G|---------------------------------------------------------------|
    D|-4-4-4-4-4-4-4--7-7-7-7-7-12-12-12-12-12-12-12--9-9-9--9-9-----|x3
    A|-2-2-2-2-2-2-2--5-5-5-5-5-10-10-10-10-10-10-10--7-7-7--7-7-----|
    E|-2-2-2-2-2-2-2--5-5-5-5-5-10-10-10-10-10-10-10--7-7-7--7-7-----|
    Gtr4
    e|---------------------------------------------------------------|
    B|---------------------------------------------------------------|
    G|-8-8-8-8-8--8-8-9-9-9-9-9-9-11-11-11-11-11--11-9-9-9-9-9-9-----|
    D|-x-x-x-x-x--x-x-x-x-x-x-x-x-x--x--x--x--x---x--x-x-x-x-x-x-----|x3
    A|-6-6-6-6-6--6-6-7-7-7-7-7-7-9--9--9--9--9---9--7-7-7-7-7-7-----|
    E|---------------------------------------------------------------|
    Gtr3
    e|---------------------------------------------------------------|
    B|---------------------------------------------------------------|
    G|---------------------------------------------------------------|
    D|-4-4-4-4-4-4-4--7-7-7-7-7-7-7-7-7-7-7-7-2-2-2-2-2--2-----------|
    A|-2-2-2-2-2-2-2--5-5-5-5-5-5-5-5-5-5-5-5-2-2-2-2-2--2-----------|
    E|-2-2-2-2-2-2-2--5-5-5-5-5-5-5-5-5-5-5-5-0-0-0-0-0--0-----------|
    Gtr4
    e|---------------------------------------------------------------|
    B|---------------------------------------------------------------|
    G|-8--8-8-8--8-8-9-9-9-9-9-9-6--6-6-6-6-6-4--4-4-4-4-4-4---------|
    D|-x--x-x-x--x-x-x-x-x-x-x-x-x--x-x-x-x-x-x--x-x-x-x-x-x---------|
    A|-6--6-6-6--6-6-7-7-7-7-7-7-4--4-4-4-4-4-2--2-2-2-2-2-2---------|
    E|---------------------------------------------------------------|
    
    Verse2:
    Gtr1
    e|--------------------------------------|  |---------------------|
    B|-3--3-3-3--------------------0----0-0-|  |-----------0----0-0--|
    G|-4--4-4-4--4-4--4--6-6-6--6--0----0-0-|  |-6-6-6--6--0----0-0--|
    D|-4--4-4-4--5-5--5--7-7-7--7--0h2--2-2-|x3|-7-7-7--7--0h2--2-2--|
    A|-2--2-2-2--5-5--5--7-7-7--7--0h2--2-2-|  |-7-7-7--7--0h2--2-2--|
    E|-----------3-3--3--5-5-5--5--0----0-0-|  |-5-5-5--5--0----0-0--|
    Gtr2
    e|---------------------------------------------------------------|
    B|---------10------------10------------10-----------10-----------|
    G|---11-------11---11-------11---11-------11---11------11--------|
    D|-9-----9-------9-----9-------9-----9-------9----9--------------|x4
    A|---------------------------------------------------------------|
    E|---------------------------------------------------------------|
    Gtr4 (play near the end of the 4th repeat)
    e|---------------------------------------------------------------|
    B|---------------------------------------------------------------|
    G|----------------------------------------11---------------------|
    D|----------------------------------------9----------------------|
    A|---------------------------------------------------------------|
    E|-----------------------------------------------[7][7][7][7]----|
    
    Chorus:
    Gtr3
    e|---------------------------------------------------------------|
    B|---------------------------------------------------------------|
    G|---------------------------------------------------------------|
    D|-4-4-4-4-4-4-4--7-7-7-7-7-12-12-12-12-12-12-12--9-9-9--9-9-----|x3
    A|-2-2-2-2-2-2-2--5-5-5-5-5-10-10-10-10-10-10-10--7-7-7--7-7-----|
    E|-2-2-2-2-2-2-2--5-5-5-5-5-10-10-10-10-10-10-10--7-7-7--7-7-----|
    Gtr4
    e|---------------------------------------------------------------|
    B|---------------------------------------------------------------|
    G|-8-8-8-8-8--8-8-9-9-9-9-9-9-11-11-11-11-11--11-9-9-9-9-9-9-----|
    D|-x-x-x-x-x--x-x-x-x-x-x-x-x-x--x--x--x--x---x--x-x-x-x-x-x-----|x3
    A|-6-6-6-6-6--6-6-7-7-7-7-7-7-9--9--9--9--9---9--7-7-7-7-7-7-----|
    E|---------------------------------------------------------------|
    Gtr3
    e|---------------------------------------------------------------|
    B|---------------------------------------------------------------|
    G|---------------------------------------------------------------|
    D|-4-4-4-4-4-4-4--7-7-7-7-7-7-7-7-7-7-7-7-2-2-2-2-2--2-----------|
    A|-2-2-2-2-2-2-2--5-5-5-5-5-5-5-5-5-5-5-5-2-2-2-2-2--2-----------|
    E|-2-2-2-2-2-2-2--5-5-5-5-5-5-5-5-5-5-5-5-0-0-0-0-0--0-----------|
    Gtr4
    e|---------------------------------------------------------------|
    B|---------------------------------------------------------------|
    G|-8--8-8-8--8-8-9-9-9-9-9-9-6--6-6-6-6-6-4--4-4-4-4-4-4---------|
    D|-x--x-x-x--x-x-x-x-x-x-x-x-x--x-x-x-x-x-x--x-x-x-x-x-x---------|
    A|-6--6-6-6--6-6-7-7-7-7-7-7-4--4-4-4-4-4-2--2-2-2-2-2-2---------|
    E|---------------------------------------------------------------|
    
    Bridge:
    Gtr3
    e|---------------------------------------------------------------|
    B|---------------------------------------------------------------|
    G|---------------------------------------------------------------|
    D|-4-4------------5-5------------7-7------------2-2--------------|x2
    A|-2-2------------5-5------------7-7------------2-2--------------|
    E|-2-2------------3-3------------5-5------------0-0--------------|
    Gtr4
    e|---------------------------------------------------------------|
    B|---------------------------------------------------------------|
    G|-----11-11-11-11----11-11-11-11----11-11-11-11----6/76--------|
    D|-----x--x--x--x-----x--x--x--x-----x--x--x--x-----x------------|x2
    A|-----9--9--9--9-----9--9--9--9-----9--9--9--9-----4/54--------|
    E|---------------------------------------------------------------|
    Gtr3
    e|---------------------------------------------------------------|
    B|---------------------------------------------------------------|
    G|---------------------------------------------------------------|
    D|-4-4------------5-5------------7-7------------2-2--------------|
    A|-2-2------------5-5------------7-7------------2-2--------------|
    E|-2-2------------3-3------------5-5------------0-0--------------|
    Gtr4
    e|---------------------------------------------------------------|
    B|---------------------------------------------------------------|
    G|-----11-11-11-11----14-14-14-14----11-11-11-11----6/76--------|
    D|-----x--x--x--x-----x--x--x--x-----x--x--x--x-----x------------|
    A|-----9--9--9--9-----12-12-12-12----9--9--9--9-----4/54--------|
    E|---------------------------------------------------------------|
    Gtr3
    e|---------------------------------------------------------------|
    B|---------------------------------------------------------------|
    G|---------------------------------------------------------------|
    D|-4-4------------5-5------------7-7--------2-2------------------|
    A|-2-2------------5-5------------7-7--------2-2------------------|
    E|-2-2------------3-3------------5-5--------0-0------------------|
    Gtr4
    e|---------------------------------------------------------------|
    B|---------------------------------------------------------------|
    G|-----11-11-11-11----11-11-11-11----9-9-9------4--7------------|
    D|-----x--x--x--x-----x--x--x--x-----x-x-x------x--x-------------|
    A|-----9--9--9--9-----9--9--9--9-----7-7-7------2--5------------|
    E|---------------------------------------------------------------|
    Gtr1
    e|---------------------------------------------------------------|
    B|-3-3-3---------------------------------------------------------|
    G|-4-4-4--4-4-4--6-6-6-------------------------------------------|
    D|-4-4-4--5-5-5--7-7-7-------------------------------------------|
    A|-2-2-2--5-5-5--7-7-7-------------------------------------------|
    E|--------3-3-3--5-5-5-------------------------------------------|
    Gtr3
    e|---------------------------------------------------------------|
    B|---------------------------------------------------------------|
    G|---------------11----------------------------------------------|
    D|---------------9-----------------------------------------------|
    A|---------------------------------------------------------------|
    E|-------------------------[7][7][7][7][7][7][7][7]--------------|
    Gtr4
    e|---------------------------------------------------------------|
    B|---------------------------------------------------------------|
    G|-4------------(4)---------------------------------------------|
    D|---------------------------------------------------------------|
    A|-2------------(2)---------------------------------------------|
    E|---------------------------------------------------------------|
    
    Final Chorus:
    Gtr3
    e|---------------------------------------------------------------|
    B|---------------------------------------------------------------|
    G|---------------------------------------------------------------|
    D|-4-4-4-4-4-4-4--7-7-7-7--7-12-12-12-12-12-12-12--9-9-9-9-9-----|x4
    A|-2-2-2-2-2-2-2--5-5-5-5--5-10-10-10-10-10-10-10--7-7-7-7-7-----|
    E|-2-2-2-2-2-2-2--5-5-5-5--5-10-10-10-10-10-10-10--7-7-7-7-7-----|
    Gtr4
    e|---------------------------------------------------------------|
    B|---------------------------------------------------------------|
    G|-8--8--8-8-8-8-9-9-9-9-9-9-9-11--11--11-11-11-11-9--9-9-9-9----|
    D|-x--x--x-x-x-x-x-x-x-x-x-x-x-x---x---x--x--x--x--x--x-x-x-x----|x4
    A|-6--6--6-6-6-6-7-7-7-7-7-7-7-9---9---9--9--9--9--7--7-7-7-7----|
    E|---------------------------------------------------------------|
    
    Gtr3
    e|---------------------------------------------------------------|
    B|---------------------------------------------------------------|
    G|---------------------------------------------------------------|
    D|-4-4-4-4-4-4-4--7-7-7-7--7-7-7-7-7-7--7-7-2-2-2-2-2--2---------|
    A|-2-2-2-2-2-2-2--5-5-5-5--5-5-5-5-5-5--5-5-2-2-2-2-2--2---------|
    E|-2-2-2-2-2-2-2--5-5-5-5--5-5-5-5-5-5--5-5-0-0-0-0-0--0---------|
    Gtr4
    e|---------------------------------------------------------------|
    B|---------------------------------------------------------------|
    G|-8--8-8-8--8-8-9-9-9-9-9-9-6--6-6-6-6-6-4--4-4-4-4-4-4---------|
    D|-x--x-x-x--x-x-x-x-x-x-x-x-x--x-x-x-x-x-x--x-x-x-x-x-x---------|
    A|-6--6-6-6--6-6-7-7-7-7-7-7-4--4-4-4-4-4-2--2-2-2-2-2-2---------|
    E|---------------------------------------------------------------|
    
    Outro:
    Gtrs 3,4
    e|---------------------------------------------------------------|
    B|---------------------------------------------------------------|
    G|---------------------------------------------------------------|
    D|-4-4-4-4-4-4-4-4-4-4--------------4-4-4-4-4-4-4--4-4-----------|
    A|-2-2-2-2-2-2-2-2-2-2--------------2-2-2-2-2-2-2--2-2-----------|
    E|-2-2-2-2-2-2-2-2-2-2-[7][7][7][7]-2-2-2-2-2-2-2--2-2-----------|
    
    
    | /  slide up
    |   slide down
    | h  hammer-on
    | p  pull-off
    | ~  vibrato
    | [] harmonic
    | x  Mute note
    =============================================================================
     

    Тональность:

    Нет текста!



    Назад
    Рекомендуем посмотреть другие песни исполнителя «Linkin Park»:

    • Комментарии Facebook ()
    • Комментарии ВКонтакте



    Добавить в Избранное Браузера
    Сохранить здесь Очистить


    x

    0


    +
    -

    +
    -

    -

    Авторизация





    Зарегистрироваться

    M

    Дата и время

    • 21:05:53
       

    Социальные ссылки


    Наши приложения

    • Muzbank App Play Market
    • Muzbank Amazon App