MUZBANK



A Most Complete Bank Of Music Information

МУЗЫКАЛЬНО-ИНФОРМАЦИОННЫЙ БАНК

Поиск по сайту







    LLinkin Park • With You (аккорды и текст - chords & lyrics)


    390

    Print

    Видео «With You (Linkin Park)»

    Видео клипы к песне подбираются автоматически сайтом youtube. Возможны некоторые несоответствия клипов песне.

    ↑ Спрятать рекламу ↑



    Download



    INTRO/opening to chorus (* means a harmonic)
    D|---------------------------|
    A|---------------------------|
    F|---------------------------|
    C|---------------------------|
    G|---------------------------|
    C|-0-0--0-13/0--0-0-0-0-0-4*-|
    
    VERSE (High B string and G)
    D|-20---19------------------------20--------19-|
    A|------------19---16-------16--------12-------|
    F|---------------------------------------------|
    C|---------------------------------------------|
    G|---------------------------------------------|
    C|---------------------------------------------|
    
    CHORUS/second part of intro
    D|---------------------------------------------|
    A|---------------------------------------------|
    F|----------------------------7--------------4-|
    C|-2--------------------------5--------------x-|
    G|-0------------2-------------3--------------5-|
    C|--------------0----------------------------3-|
    
    I woke up in a dream today
    To the cold of the static / and put my cold feet on the floor
    Forgot all about yesterday
    Remembering I’m pretending to be where I’m not anymore
    A little taste of hypocrisy
    And I’m left in the wake of the mistake / slow to react
    Even though you’re so close to me
    You’re still so distant / And I can’t bring you back
    It’s true / the way I feel
    Was promised by your face
    The sound of your voice
    Painted on my memories
    Even if you’re not with me
    I’m with you
    You / Now I see/ keeping everything inside
    You / Now I see / Even when I close my eyes
    I hit you and you hit me back
    We fall to the floor / the rest of the day stands still
    Fine line between this and that
    When things go wrong I pretend the past isn’t real
    Now I?m trapped in this memory
    And I’m left in the wake of the mistake / slow to react
    Even though you’re close to me
    You’re still so distant / And I can’t bring you back
    no
    No matter how far we?ve come
    I can?t wait to see tomorrow
    With you
    

    Тональность:

    Нет текста!



    Назад
    Рекомендуем посмотреть другие песни исполнителя «Linkin Park»:

    • Комментарии Facebook ()
    • Комментарии ВКонтакте



    Добавить в Избранное Браузера
    Сохранить здесь Очистить


    x

    0


    +
    -

    +
    -

    -

    Авторизация





    Зарегистрироваться

    M

    Дата и время

    • 18:46:22
       

    Социальные ссылки


    Наши приложения

    • Muzbank App Play Market
    • Muzbank Amazon App