MUZBANK



A Most Complete Bank Of Music Information

МУЗЫКАЛЬНО-ИНФОРМАЦИОННЫЙ БАНК

Поиск по сайту







    LLiquid Tension • Hourglass (аккорды и текст - chords & lyrics)


    271

    Print

    Видео «Hourglass (Liquid Tension)»

    Видео клипы к песне подбираются автоматически сайтом youtube. Возможны некоторые несоответствия клипов песне.

    ↑ Спрятать рекламу ↑



    Download


     
    
    
    ================================================================================
             Title : Hourglass
            Artist : Liquid Tension Experiment
             Album : Liquid Tension Experiment 2
    Transcribed by : Benedikt Jennen
    ================================================================================
    
    Legend
    ------
    
     h  = hammer-on
     p  = pull-off
     b  = bend
     r  = bend release
     /  = slide up/down
     = natural harmonic
    [5] = artifical harmonic
     ~  = vibrato
     tr = trill
    
    E|--------8/10---|-----|---------------|---------|-------8/10---|-----|-
    B|--8-7-8------8-|-7---|---------10----|---------|-8-7-8------8-|-7---|-
    G|---------------|---9-|---------------|-5/7-----|--------------|---9-|-
    D|---------------|-----|-10-9-10----10-|-----7-9-|--------------|-----|-
    A|---------------|-----|---------------|---------|--------------|-----|-
    E|---------------|-----|---------------|---------|--------------|-----|-
    
    E|------------------|--|-------|-----|-----------|------------|-------|-
    B|------------------|--|-----8-|-7-8-|-----------|------------|-----8-|-
    G|------------------|--|-7-9---|-----|-5-7-7/9---|--------7---|-7-9---|-
    D|-10-9-10-7/9----7-|--|-------|-----|---------7-|------7---7-|-------|-
    A|-------------10---|--|-------|-----|-----------|--7-9-------|-------|-
    E|------------------|--|-------|-----|-----------|------------|-------|-
    
    E|----7-|-8/10-8---|-----|--|-----------------|-----------------|-------
    B|-10---|--------8-|-----|--|---------------0-|-------0-1-----3-|-------
    G|------|----------|-5-7-|--|-0-------2-------|-----2-----------|-----0-
    D|------|----------|-----|--|---5-4-5---4-0---|---0---------2---|---4---
    A|------|----------|-----|--|-----------------|-----------0-----|-2-----
    E|------|----------|-----|--|-----------------|-3---------------|-------
    
    E|-0---2-3--^3-|-3/5-2-------|-----------------|-----------------|-----
    B|----------^3-|-------------|---------------0-|-------0-1-----3-|-----
    G|----------^2-|-------0-----|-0-------2-------|-----2-----------|-----
    D|----------^0-|---------4-0-|---5-4-5---4-0---|---0---------2---|---4-
    A|---3------^--|-------------|-----------------|-----------0-----|-2---
    E|----------^--|-------------|-----------------|-3---------------|-----
    
    E|---0---2-3--^5-|-72-|-------8/10---|-----|---------------|-----------
    B|------------^5-|-----|-8-7-8------8-|-7---|---------10----|-----------
    G|-0----------^5-|-----|--------------|---9-|---------------|-5/7-------
    D|------------^4-|-----|--------------|-----|-10-9-10----10-|-----7-9-7-
    A|-----3------^--|-----|--------------|-----|---------------|-----------
    E|------------^--|-----|--------------|-----|---------------|-----------
    
    E|-------|-------8/10---|---------|------------------|--|-------|-----|-
    B|-----7-|-8-7-8------8-|-7h8p7---|------------------|--|-----8-|-7-8-|-
    G|---7---|--------------|-------9-|------------------|--|-7-9---|-----|-
    D|-9-----|--------------|---------|-10-9-10-7/9----7-|--|-------|-----|-
    A|-------|--------------|---------|-------------10---|--|-------|-----|-
    E|-------|--------------|---------|------------------|--|-------|-----|-
    
    E|------------|------------------|-------|-------7-|-8/10-8---|-----|---
    B|------------|---------------|-----8-|-10-10---|--------8-|-----|---
    G|----7-7/9---|---------------|-7-9---|---------|----------|-5-7-|---
    D|-10-------7-|---------------|-------|---------|----------|-----|---
    A|------------|---------------|-------|---------|----------|-----|-6-
    E|------------|------------------|-------|---------|----------|-----|---
    
    E|---------6-|--^5-6-----6-|-6-------6-|-4---------|------------|-----|-
    B|-----6-6---|--^6-----6---|---6---6---|---4-3---4-|-4--------4-|-6-6-|-
    G|---0-------|--^5---3-----|-----6-----|-----------|-3------3-3-|-5-7-|-
    D|-8---------|--^----------|-----------|-----------|-5----5-----|-8-8-|-
    A|-----------|--^----------|-----------|-2---------|-6--6-------|-8-8-|-
    E|-----------|--^----------|-----------|-------4---|-3----------|-5-6-|-
    
    E|-------------|-4-------|-----------------|-----------------|---------
    B|-6-----6-----|---4-4-3-|-----3-4-----3-4-|-----3-4-----3-4-|-------4-
    G|-7---7-----7-|-----4---|---0-------0-----|---0-------0-----|-----5---
    D|-6-6-----6---|-----0---|-----------------|-----------------|---4-----
    A|-------------|-3---2---|-3-------3-------|-1-------1-------|-0-------
    E|-------------|-------3-|-----------------|-----------------|---------
    
    E|---------|-----------------|-----------------|-----------------|-----
    B|-------4-|-------3-------3-|-----3-4-----3-4-|-------4-------4-|-----
    G|-----5---|-----4-------4---|---0-------0-----|-----5-------5---|-----
    D|---4-----|---3-------3-----|-----------------|---4-------4-----|---3-
    A|-0-------|-----------------|-3-------3-------|-----------------|-0---
    E|---------|-4-------3-------|-----------------|-6-------6-------|-----
    
    E|-------------|-----------------|-------------3-|-2-2-----3-----0-|---
    B|---4-------4-|-------3-------3-|-------5-3-5---|-----------------|---
    G|-5-------5---|-----4-------4---|-----0---------|-----2-------0---|---
    D|-------3-----|---3-------3-----|---5-----------|-------4---4-----|---
    A|-----0-------|-----------------|-3-------------|-----------------|-7-
    E|-------------|-4-------3-------|---------------|-----------------|---
    
    E|-----0---|-----3-|-0---|-----|-------8/10---|-----|---------------|---
    B|-------0-|-4---3-|-5---|-4-4-|-8-7-8------8-|-7---|---------10----|---
    G|---0-----|-4-2-0-|-6-3-|-2-2-|--------------|---9-|---------------|-5/
    D|-5-------|-4---0-|-5---|-4-4-|--------------|-----|-10-9-10----10-|---
    A|---------|-2-----|-4---|-3-2-|--------------|-----|---------------|---
    E|---------|-------|-----|-----|--------------|-----|---------------|---
    
                                                    repeat 4 times, then fade out
    E|-------------|-------8/10---|-----|------------------|--||------------
    B|-----------7-|-8-7-8------8-|-7---|------------------|--||*-----------
    G|-7-------9---|--------------|---9-|------------------|--||--0---0-2---
    D|---7-9-9-----|--------------|-----|-10-9-10-7/9----7-|--||----4-----4-
    A|-------------|--------------|-----|-------------10---|--||*-----------
    E|-------------|--------------|-----|------------------|--||------------
    
    E|-----|---------------|-------0---2-3-3-|-3/5-2--------||-
    B|---0-|-------0-1---3-|---------------3-|-------------*||-
    G|-----|-----2---------|-----0---------2-|-------0------||-
    D|-0---|---0-------2---|---4-----------0-|---------4-0--||-
    A|-----|---------0-----|-2-------3-------|-------------*||-
    E|-----|-3-------------|-----------------|--------------||-
     

    Тональность:

    Нет текста!



    Назад
    Рекомендуем посмотреть другие песни исполнителя «Liquid Tension»:

    • Комментарии Facebook ()
    • Комментарии ВКонтакте



    Добавить в Избранное Браузера
    Сохранить здесь Очистить


    x

    0


    +
    -

    +
    -

    -

    Авторизация





    Зарегистрироваться

    M

    Дата и время

    • 04:25:40
       

    Социальные ссылки


    Наши приложения

    • Muzbank App Play Market
    • Muzbank Amazon App