MUZBANK



A Most Complete Bank Of Music Information

МУЗЫКАЛЬНО-ИНФОРМАЦИОННЫЙ БАНК

Поиск по сайту







    LLit • Miserable (аккорды и текст - chords & lyrics)


    221

    Print

    Видео «Miserable (Lit)»

    Видео клипы к песне подбираются автоматически сайтом youtube. Возможны некоторые несоответствия клипов песне.

    ↑ Спрятать рекламу ↑



    Download



     
    
    
    I like to play this tune in drop D tuning.
    If you like it cool, if not oh well!
    Solo not included. The riffs are very easy though.
    
         INTRO CLEAN
    E-----------------------------------------------
    B-----------------------------------------------
    G-----------------------------------------------
    D-12-12/7-7/4-0-5-11-11-------------12-9--------
    A-12-12/7-7/4-0-5--9--9-X3 END WITH-12-9--------
    D-12-12/7-7/4-0-5-------------------12-9--------
    
         VERSE DISTORTION
    E-----------------------------------------------
    B-0---------------------------------------------
    G-0-PM X8---------------------------------------
    D-0-------4------REPEAT X 3---------------------
    A-0-------4-X16---------------------------------
    D---------4-------------------------------------
    
          CHORUS DISTORTED
    E-----------------------------------------------
    B-----------------------------------------------
    G-----------------------------------------------
    D-12----7----11----REPEAT X2-12----7----9-------
    A-12-X4-7-X2-11-X2---THEN----12-X4-7-X2-9-X16---
    D-12----7----11--------------12----7----9-------
    
    REPEAT VERSE AND CHORUS THEN PLAY INTRO WITH 
    DISTORTION THEN SOLO THEN BACK TO CHORUS THEN
    INTRO CLEAN THEN TO CHORUS DISTORTED THEN TO INTRO
    DISTORTEDENDING ON SAME NOTE LISTEN TO SONG TO
    PERFECT.
     

    Тональность:

    Нет текста!



    Назад
    Рекомендуем посмотреть другие песни исполнителя «Lit»:

    • Комментарии Facebook ()
    • Комментарии ВКонтакте



    Добавить в Избранное Браузера
    Сохранить здесь Очистить


    x

    0


    +
    -

    +
    -

    -

    Авторизация





    Зарегистрироваться

    M

    Дата и время

    • 02:19:46
       

    Социальные ссылки


    Наши приложения

    • Muzbank App Play Market
    • Muzbank Amazon App