MUZBANK



A Most Complete Bank Of Music Information

МУЗЫКАЛЬНО-ИНФОРМАЦИОННЫЙ БАНК

Поиск по сайту







    LLit • My Own Worst Enemy (аккорды и текст - chords & lyrics)


    294

    Print

    Видео «My Own Worst Enemy (Lit)»

    Видео клипы к песне подбираются автоматически сайтом youtube. Возможны некоторые несоответствия клипов песне.

    ↑ Спрятать рекламу ↑



    Download



     
    
    
    Heres a reeeely eeezzzy way to play this reely kool song.
    
    E------------------------------------------------------------------
    B------------------------------------------------------------------
    G------------------------2------------------------2----------------
    D-1 2222222--1 22222 --4-2----1 22222222 122222 4-2----------------
    A----------------------2-0----------------------2-0----------------
    D------------------------------------------------------------------
    
    E------------------------------------------------------------------
    B------------------------------------------------------------------
    G------------------------2------------------------2----------------
    D-1-2222222--1-22222--4-2----1-22222222 122222- 4-2----------------
    A----------------------2-0----------------------2-0----------------
    D------------------------------------------------------------------
    
    
    E------------------------------------------------------------------
    B------------------------------------------------------------------
    G-2-2---222--222----2----------------------------------------------X4
    D-2-2---222--222--4-2----------------------------------------------
    A-2-2---222--222--2-0----------------------------------------------
    D------------------------------------------------------------------
    
    
    E------------------------------------------------------------------
    B------------------------------------------------------------------
    G--2-2-2-2-2-2-2-2-4-4-4-4-4-4-4-4-2-2-2-2-2-2-2-2-4-4-4-4-4-4-4-4-
    D--2-2-2-2-2-2-2-2-4-4-4-4-4-4-4-4-2-2-2-2-2-2-2-2-4-4-4-4-4-4-4-4-X2
    A--2-2-2-2-2-2-2-2-4-4-4-4-4-4-4-4-0-0-0-0-0-0-0-0-2-2-2-2-2-2-2-2-
    D------------------------------------------------------------------
    
    E------------------------------------------------------------------
    B------------------------------------------------------------------
    G------------------------2------------------------2----------------
    D-1 2222222--1 22222 --4-2----1 22222222 122222 4-2----------------X2
    A----------------------2-0----------------------2-0----------------
    D------------------------------------------------------------------
    
    E------------------------------------------------------------------
    B------------------------------------------------------------------
    G-2-2---222--222----2----------------------------------------------X4
    D-2-2---222--222--4-2----------------------------------------------
    A-2-2---222--222--2-0----------------------------------------------
    D------------------------------------------------------------------
    
    
    E------------------------------------------------------------------
    B------------------------------------------------------------------
    G--2-2-2-2-2-2-2-2-4-4-4-4-4-4-4-4-2-2-2-2-2-2-2-2-4-4-4-4-4-4-4-4-
    D--2-2-2-2-2-2-2-2-4-4-4-4-4-4-4-4-2-2-2-2-2-2-2-2-4-4-4-4-4-4-4-4-X2
    A--2-2-2-2-2-2-2-2-4-4-4-4-4-4-4-4-0-0-0-0-0-0-0-0-2-2-2-2-2-2-2-2-
    D------------------------------------------------------------------
    
    
    E------------------------------------------------------------------
    B------------------------------------------------------------------
    G------------------------------------------------------------------
    D-1-2222222--1 22222-4-4-1-2222222--1 22222-4-4--------------------
    A------------------------------------------------------------------
    D------------------------------------------------------------------
    
    
    E-2-44444444-4444455--67777999977775555444455554444222-------------
    B------------------------------------------------------------------
    G------------------------------------------------------------------
    D------------------------------------------------------------------
    A------------------------------------------------------------------
    D------------------------------------------------------------------
    
    E------------------------------------------------------------------
    B------------------------------------------------------------------
    G--2-2-2-2-2-2-2-2-4-4-4-4-4-4-4-4-2-2-2-2-2-2-2-2-4-4-4-4-4-4-4-4-
    D--2-2-2-2-2-2-2-2-4-4-4-4-4-4-4-4-2-2-2-2-2-2-2-2-4-4-4-4-4-4-4-4-X2
    A--2-2-2-2-2-2-2-2-4-4-4-4-4-4-4-4-0-0-0-0-0-0-0-0-2-2-2-2-2-2-2-2-
    D------------------------------------------------------------------
    
    E------------------------------------------------------------------
    B------------------------------------------------------------------
    G------------------------2------------------------2----------------
    D-1 2222222--1 22222 --4-2----1 22222222 122222 4-2----------------
    A----------------------2-0----------------------2-0----------------
    D------------------------------------------------------------------
     

    Тональность:

    Нет текста!



    Назад
    Рекомендуем посмотреть другие песни исполнителя «Lit»:

    • Комментарии Facebook ()
    • Комментарии ВКонтакте



    Добавить в Избранное Браузера
    Сохранить здесь Очистить


    x

    0


    +
    -

    +
    -

    -

    Авторизация





    Зарегистрироваться

    M

    Дата и время

    • 07:42:21
       

    Социальные ссылки


    Наши приложения

    • Muzbank App Play Market
    • Muzbank Amazon App