MUZBANK



A Most Complete Bank Of Music Information

МУЗЫКАЛЬНО-ИНФОРМАЦИОННЫЙ БАНК

Поиск по сайту







    LLive • Selling The Drama (аккорды и текст - chords & lyrics)


    175

    Print

    Видео «Selling The Drama (Live)»

    Видео клипы к песне подбираются автоматически сайтом youtube. Возможны некоторые несоответствия клипов песне.

    ↑ Спрятать рекламу ↑



    Download



     
    
    
    Selling the Drama by Live
    
    Tune Guitars Down Half a Step
    Riff 1:           
    |----------|      
    |----------|
    |----------|
    |----------|
    |--2^3-(2)0|
    |----------|
    
    Riff 2:
    |--0-0-0-0-0-0---0-0-0---0-0-0---0-0-0---0-0-0-|
    |--1-1-1-1-1-1/3-3-3-3/5-5-5-5/7-7-7-7/8-8-8-8-|
    |----------------------------------------------|
    |----------------------------------------------|
    |----------------------------------------------|
    |----------------------------------------------|
    
    |--0-----0--0--0-----0--0--0-----0--0-----0----|
    |--8/10--10-10-10/12-12-12-12/15-15-15/17-17---|
    |----------------------------------------------|
    |----------------------------------------------|
    |----------------------------------------------|
    |----------------------------------------------|
    
    
    
    Solo:
       Dsus2                                Esus2
    |--0--0-----(0)--0--0--0--0--0--0--------------|
    |--5-(5)^6-------17-17----17-17-17--12--12-----|
    |---------------------------------------12-----|
    |----------------------------------------------|
    |----------------------------------------------|
    |----------------------------------------------|
                                       Dsus2
    |--------------12------------------0-----------|
    |----------14--12--14--14--14--12--12/15-------|
    |--14--14--14--12--14--14--14--12--------------|
    |--14--14--14------14--14--14------------------|
    |----------------------------------------------|
    |----------------------------------------------|
                                  Csus2
    |--0--0--0--0--0--0--0--0--0--0--0--0--0--0--0-|
    |--15-15-15-15-15-15-15-15-15-15/17-17-17-17-17|
    |----------------------------------------------|
    |----------------------------------------------|
    |----------------------------------------------|
    |----------------------------------------------|
                                    G
    |--0--0--0----------------------3--------------|
    |--17-17-17--------------------3--------------|
    |-------------------------------0--------------|
    |-------------------------------0--------------|
    |------------------2^3-(2)p0----2--------------|
    |-------------------------------3--------------|
       D        G        D  Dsus4 D    G
    |--2--------3--------2--3-----2----3-----------|
    |--3--------3--------3--3-----3----3-----------|
    |--2--------0--------2--2-----2----0-----------|
    |--0--------0--------0--x----------0-----------|
    |--x--------2--------x--x----------2-----------|
     

    Тональность:

    Нет текста!



    Назад
    Рекомендуем посмотреть другие песни исполнителя «Live»:

    • Комментарии Facebook ()
    • Комментарии ВКонтакте



    Добавить в Избранное Браузера
    Сохранить здесь Очистить


    x

    0


    +
    -

    +
    -

    -

    Авторизация





    Зарегистрироваться

    M

    Дата и время

    • 23:20:06
       

    Социальные ссылки


    Наши приложения

    • Muzbank App Play Market
    • Muzbank Amazon App