MUZBANK



A Most Complete Bank Of Music Information

МУЗЫКАЛЬНО-ИНФОРМАЦИОННЫЙ БАНК

Поиск по сайту







    LLiving End • Closing In (аккорды и текст - chords & lyrics)


    179

    Print

    Видео «Closing In (Living End)»

    Видео клипы к песне подбираются автоматически сайтом youtube. Возможны некоторые несоответствия клипов песне.

    ↑ Спрятать рекламу ↑



    Download


     
    
    
    Closing In - By THE LIVING END - Tabbed by Michael Fryar , manumick20@yahoo.com
    
    /= slide
    b=bend
    p=pull-off
    x=silance string
    r=rake
    ^= repeat 4 times
    Ok well here ya all go, Ive finally worked out the full version of Closing In (after about 2 months!)
    This has to be the hardest Living End song there is so dont think you can
    play it all first go!  Enjoy!,Michael.
    Also Ive put everything in little sections so learn each section at a time.
    
    e-------:---------:----------:----------:--|
    b-------:---------:----------:----------:--|
    g---7p6-:----10p9-:----13p12-:----16p15-:--|
    d-9-----:-12------:-15-------:-18-------:--|
    a-------:---------:----------:----------:--|
    e-------:---------:----------:----------:--|
    
    e-----------------:
    b-----------------:
    g-------------12~-:
    d-12-14-15-12-----:
    a-----------------:
    e-----------------:
    
    
    e---------------------------------8-7----:
    b------------------------------10-----9~-:
    g------------------10p9-9-10-------------:
    d----------10/9-12-----------------------:
    a-------12-------------------------------:
    e-10-13----------------------------------:
    
    e---------------------------------8-7--:
    b------------------------------10------:
    g------------------10p9---9-10---------:
    d----------10/9-12---------------------:
    a-------12-----------------------------:
    e-10-13--------------------------------:
    
    e----------------------------------------------12-13-15-17--:
    b-------------------------------------11-13-15--------------:
    g----------------------------10-12-14-----------------------:
    d-------------------10-12-14--------------------------------:
    a----------10-12-13-----------------------------------------:
    e-10-12-13--------------------------------------------------:
    
       (this section is played twice.)
    e------------------------------------:
    b------------------------------------:
    g-----7-7--------7-7-9-9-9h10p9-9-7--:
    d--------8-8-7-7---------------------:
    a-5-5--------------------------------:
    e------------------------------------:
    
    e------------------------10-:---------------------/:---------:
    b-------------------7h10----:---------------------/:---------:
    g-----7-7-------7h8---------:--------7------------/:------7--:
    d---------8-8-7-------------:----7-8---10-7-7h8p7-/:------7--:
    a-5-5-----------------------:-10------------------/:-10-9-5--:
    e---------------------------:---------------------/:---------:
    
    e------------------5-:
    b-------9----------5-:
    g-10-8-10-8-10---7-6-:
    d-8--8----7-8----7-5-:
    a--------------0---7-:
    e------------------5-:
    
    
    e--------------------------------------------------------:
    b--------------------------------------------------------:
    g--------------------------77777-88888-99999-1010101010/-:
    d-7-(x8)--9-(x8)--10-(x8)--xxxxx-xxxxx-xxxxx--x-x-x-x-x/-:
    a-5-------7-------8--------55555-66666-77777--8-8-8-8-8/-:
    e--------------------------------------------------------:
    
    
    e---------:---------:--------------------:---------:-----------:--------------------:
    b---------:-5-6-8-5-:-5------------------:---------:-5-6-8-6-5-:--------------------:
    g-3-5-3-2-:-5-------:---7-5/4-5-4--------:-3-5-3-2-:-5---------:-5-4-5-7--8-7-8--10-:
    d-3-------:-5-------:-------------7h5-7b-:-3-------:-5---------:-7-6-7-9-10-9-10-12-:
    a---------:---------:--------------------:---------:-----------:--------------------:
    e---------:---------:--------------------:---------:-----------:--------------------:
    
    
    e--------------------:----------------------:---------------------------:-------------------------------:
    b--------------------:--------------8h10h11-:------------------11h13h14-:-------------------14h16h17-15-:
    g-7------------------:-9p7p5-7h9h10---------:-12p10p8-10h12h13----------:-15p13p11-13h15h16-------------:
    d---10-8-7-----------:----------------------:---------------------------:-------------------------------:
    a----------10-8-7----:----------------------:---------------------------:-------------------------------:
    e-----------------10-:----------------------:---------------------------:-------------------------------:
    
    
      (repeat this section 3 times ok)
    e----------------------:--------------------:----------------------:----------------------:
    b----------------------:--------------------:----------------------:----------------------:
    g----------------------:--------------------:----------------------:----------14-12-------:
    d----------12----------:---------11---------:----------14----------:-------15-------14----:
    a-10-13-12----10-13-12-:-9-12-11----9-12-11-:-12-15-14----12-15-14-:-13-16-------------13-:
    e----------------------:--------------------:----------------------:----------------------:
    
    
    e----------------------:--------------------:---------------------:--------------------------------:
    b----------------------:--------------------:---------------------:--------------------------------:
    g----------------------:--------------------:---------------------:----------14-12--------------14-:
    d----------12----------:---------11---------:---------14----------:-------15-------14----12-15-----:
    a-10-13-12----10-13-12-:-9-12-11----9-12-11-:-12-15-14---12-15-14-:-13-16-------------13-----------:
    e----------------------:--------------------:---------------------:--------------------------------:
    
    
    e-8p5-------:-11p8---------:-14p11----------:-17p14----------:
    b-----7-----:------10------:-------13-------:-------16-------:
    g-------8-5-:---------11-8-:----------14-11-:----------17-14-:
    d-----------:--------------:----------------:----------------:
    a-----------:--------------:----------------:----------------:
    e-----------:--------------:----------------:----------------:
    
    Main Solo.
    
    e--------------------------------:-------------------------------:
    b-12--13-------------------------:-------------------------------:
    g-12b----12b14r12p10----10-------:-------------------------------:
    d--------------------12----12-12-:-10-10h12p10----10-------------:
    a--------------------------------:-------------12----/-10-8----8-:
    e--------------------------------:--------------------------10---:
    
    e--------------------:-----------------------------:--------/---------------------------------:
    b--------------------:-----------------------------:--------/---------------------------------:
    g--------------------:--------10h12p10----10-12-10-:-/13-13-/-12h13p12----12------------------:
    d-----10-12p10----10-:-/12-12----------12----------:--------/----------15----15-12---12-12~~~-:
    a-/12----------12----:-----------------------------:--------/---------------------15----------:
    e--------------------:-----------------------------:--------/---------------------------------:
    
    
    e--------------------------------------------------------:-/17-13------------------:
    b-10-----------------------------------------------------:--------15---------------:
    g-10-----------------------------------------------------:-----------14-13-~~~~13/-:
    d----12-------10-12-12b13r12-12p10----10-----------------:-------------------------:
    a-------12-12----------------------12----12-10/8-------8-:-------------------------:
    e------------------------------------------------10-10---:-------------------------:
    
    
    e-----------------------------------------------------------:
    b-----------------------------------------------------------:
    g-15p14p12----------14p12p10----------12p10p9-10p9----------:
    d----------15p14p12----------14p12p10--------------10-12~~~-:
    a-----------------------------------------------------------:
    e-----------------------------------------------------------:
    
    e-------------------------:---------------------:---------------------:------------------------------------------:
    b-------------------------:---------------------:-------------------^-:---------------------------13-------------:
    g-10---12p10----10-10-10-^:-13p10----10-10-10-^-:-14p10----10-10-10-^-:-----10-12p-10----10-12/14----14/12-10----:
    d------------12----------^:-------12----------^-:-------12------------:-/12-----------12----------------------12-:
    a-------------------------:---------------------:---------------------:------------------------------------------:
    e-------------------------:---------------------:---------------------:------------------------------------------:
    
    
    e----13----:-15b-15b-15b17r15p13------:-----15-----15-----15-/:
    b-15----15-:---------------------15-15:-15b----15b----15b----/:
    g----------:--------------------------:----------------------/:
    d----------:--------------------------:----------------------/:
    a----------:--------------------------:----------------------/:
    e----------:--------------------------:----------------------/:
    
    e-----15-------------------:
    b-15b----15b17r15p13-15-13-:
    g--------------------------:
    d--------------------------:
    a--------------------------:
    e--------------------------:
    
    
    e-13-13-15b-15b17r15p13----13-------13-15p13/12-13p12/10/-/:
    b-----------------------15----15-15-----------------------/:
    g---------------------------------------------------------/:
    d---------------------------------------------------------/:
    a---------------------------------------------------------/:
    e---------------------------------------------------------/:
    
    e-12p10----10-----------------------:
    b-------13----13-11-13p11/10----10/-:
    g----------------------------12-----:
    d-----------------------------------:
    a-----------------------------------:
    e-----------------------------------: Main Solo Ends.
    
      (play this section twice)
    e----------------------------------:--------------------11-10-:---------------------/:
    b----------------------------------:---------------7h10-------:---------------------/:
    g----7-7--------7-7-9-9-9h10p9-9-7-:-7-7-------7h8------------:--------7------------/:
    d-------8-8-7-7--------------------:-----8-8-7----------------:----7-8---10-7-7h8p7-/:
    a-5-5------------------------------:--------------------------:-10------------------/:
    e----------------------------------:--------------------------:---------------------/:
    
    e--------:-------------------5-:
    b--------:--------9----------5-:
    g--------:-10--8-10-8-10---7-6-:
    d------7-:-8---8----7--8---7-5-:
    a-10-9-5-:---------------0---7-:
    e--------:-------------------5-:
    
    
    e-5----------------------------------------------------------------------:
    b-5--------------------------------------------------6-------------------:
    g-6--------------------------------------------------6-------------------:
    d-5-(held from before,strum as many times as needed)-7-(strum as needed)-:
    a-7--------------------------------------------------8-------------------:
    e-5----------------------------------------------------------------------:
    
    e-5-------------------------------------------:---------------------------------------------13-15-15b-15b-15b-/:
    b-6-12b--13-----------------------------------:------------------------------------10-13-15-------------------/:
    g-7-------12b-10-12-10------------------------:---------------------------10-12-13----------------------------/:
    d-7--------------------12-10h12p10------------:---------10h12p10----10-12-------------------------------------/:
    a-5--------------------------------12-12/10-8-:-8-10/12----------12-------------------------------------------/:
    e---------------------------------------------:---------------------------------------------------------------/:
                 Dm
              e-5--:
              b-6--:
    Finish on g-7--:
              d-7--:
              a-5--:
              e----:  Tabbed all by Michael Fryar, manumick20@yahoo.com
                       ICQ: 67053832.
     

    Тональность:

    Нет текста!



    Назад
    Рекомендуем посмотреть другие песни исполнителя «Living End»:

    • Комментарии Facebook ()
    • Комментарии ВКонтакте



    Добавить в Избранное Браузера
    Сохранить здесь Очистить


    x

    0


    +
    -

    +
    -

    -

    Авторизация





    Зарегистрироваться

    M

    Дата и время

    • 01:30:21
       

    Социальные ссылки


    Наши приложения

    • Muzbank App Play Market
    • Muzbank Amazon App