MUZBANK



A Most Complete Bank Of Music Information

МУЗЫКАЛЬНО-ИНФОРМАЦИОННЫЙ БАНК

Поиск по сайту







    LLiving End • Roll On (аккорды и текст - chords & lyrics)


    197

    Print

    Видео «Roll On (Living End)»

    Видео клипы к песне подбираются автоматически сайтом youtube. Возможны некоторые несоответствия клипов песне.

    ↑ Спрятать рекламу ↑



    Download


     
    
    
    -THE LIVING END-
                                              Roll On
                                        Tabbed By Mick Fryar
                                        manumick20@yahoo.com
    
    
    ^=bend
    ~=vibrado
    ^^=full bend up and bring back down
    p=pull off
    h=hammer on
    s=slide
    
    IntroA:
    
    e--------------------------------------|
    b--------------------------------------|
    g-----6-6-9-----6-6-9-repeat as needed-|
    d-7-7-------7-7------------------------|
    a-0-0-------0-0------------------------|
    e--------------------------------------|
    
    IntroB:
    
    e-------------------------------|
    b-------------------------------|
    g-------------------------------|
    d-7-7---7-7---7-7---7-7--7-7----|repeat as needed
    a-0-0---0-0---0-0---0-0--0-0----|
    e-------------------------------|
    
    
    Chorus:
      C      F      C       F     C     G       A     F G
    e---------------------------------------------------------------------|
    b---------------------------------------------------------------------|
    g-5-5-5---------5-5-5--------5-5-5---------2-2-2----------------------|
    d-5-5-5--3-3-3--5-5-5--3-3---5-5-5--5-5-5--2-2-2--3-5-----------------|(x2)
    a-3-3-3--3-3-3--3-3-3--3-3---3-3-3--5-5-5--0-0-0--3-5-----------------|
    e--------1-1-1---------1-1----------3-3-3---------1-3-----------------|
    
    IntroA
    
    Verse:
      A                        C       D
    e---------------------------------2--2-2---------------------|
    b---------------------------------3--3-3---------------------|
    g-2--2-2-2-2--2--2-2-2-2--5--5-5--2--2-2--2--2-2-2-----------|
    d-2--2-2-2-2--2--2-2-2-2--5--5-5--0--0-0--2--2-2-2-----------|(x2)
    a-0--0-0-0-0--0--0-0-0-0--3--3-3----------0--0-0-0-----------|
    e------------------------------------------------------------|
    
    Chorus
    
    IntroA
    
    Verse
    
    Solo :
    
    e----------------------------------------------------------------------------|
    b---8^-----------------------------------------------------------------------|
    g------9-9^-------7-9-7---7----------------------------------------------10^-|
    d-------------7h9-------9---9-8-7--5---7-5s----------7-7-7-7-10-10-10-10-----|
    a------------------------------------7-------8-8-8-8-------------------------|
    e----------------------------------------------------------------------------|
    
    e---------------5------------------------------------|
    b-----------------8p5---8--5-----5-------------------|
    g---5-7-7^9~----------7------7p5---7p5---7p5---------|
    d--------------------------------------7-----7-5-7s--|
    a----------------------------------------------------|
    e----------------------------------------------------|
    
    e------------------------------------------------15~-----------------------------|
    b--8--8-10--8---8--8--8-10-11-------------15b17------17p15----15-15^17-15~15~15~-|
    g-10-10-10-10--10-10-10-10-10------------------------------16--------------------|
    d--------------------------------------------------------------------------------|
    a--------------------------------------------------------------------------------|
    e--------------------------------------------------------------------------------|
    
    
    Verse: this verse is played like this,
      A        C   D   A           C    D     A            A7
    e------------------------------------------------------0-----|
    b------------------------------------------------------2-----|
    g-2----2---5---7---2---2---2---5-5--7-7--2-2-2-2-2-2-2-0-----|
    d-2----2---5---7---2---2---2---5-5--7-7--2-2-2-2-2-2-2-2-----|
    a-0----0---3---5---0---0---0---3-3--5-5--0-0-0-0-0-0-0-0-----|
    e------------------------------------------------------------|
    
    
    Bridge:
    
    e------------------------------------------------------------------------|
    b------------------------------------------------------------------------|
    g-----------pause--(bass plays)------------------------------------------|
    d------------------------------------------------------------------------|
    a------------------------------------------------------------------------|
    e-----------------------------------3-3-3-3-3-3-3-3-6-6-6-6-8-8-8-8-(x2)-|(there are easier ways to play that
                                                                               but thats how Chris plays it.)
    
       G    A     G
    e----------------|
    b----------------|
    g-----2-2-2-2----|
    d--5--2-2-2-2-5--|
    a--5--0-0-0-0-5--|
    e--3----------3--|
    
    
    e------------------------------------------|
    b------------------------------------------|
    g-5-5-------5-5-------5-5-------5-5-5------|
    d-5-5--3-3--5-5--3-3--5-5--3-3--5-5-5------|
    a-3-3--3-3--3-3--3-3--3-3--3-3--3-3-3---3--|
    e------1-1-------1-1-------1-1--------1----|
    
    Chorus
    
    IntroA
    
    Outro:
                                                 A   G  F#   F   A    G   F# F E A
    e-------------------------------------------------------------------------------|
    b-----9^^-------9^^---9^^-repeat as needed--------------------------------------|
    g-------------------------------------------2-2--------------2-2-------------2--|
    d-7-7------7-7------7-7---------------------2-2-5-5-4-4-3-3--2-2-5-5-4-4-3-2-2--|
    a-0-0------0-0------0-0---------------------0-0-5-5-4-4-3-3--0-0-5-5-4-4-3-2-0--|
    e-----------------------------------------------3-3-2-2-1-1------3-3-2-2-1-0----|
     

    Тональность:

    Нет текста!



    Назад
    Рекомендуем посмотреть другие песни исполнителя «Living End»:

    • Комментарии Facebook ()
    • Комментарии ВКонтакте



    Добавить в Избранное Браузера
    Сохранить здесь Очистить


    x

    0


    +
    -

    +
    -

    -

    Авторизация





    Зарегистрироваться

    M

    Дата и время

    • 10:57:58
       

    Социальные ссылки


    Наши приложения

    • Muzbank App Play Market
    • Muzbank Amazon App